  0
SECTION
  2
HEADER
  9
$ACADVER
  1
AC1021
  9
$ACADMAINTVER
 70
    25
  9
$DWGCODEPAGE
  3
ANSI_1250
  9
$LASTSAVEDBY
  1
Administrator
  9
$INSBASE
 10
0.0
 20
0.0
 30
0.0
  9
$EXTMIN
 10
0.0
 20
14.9333496094
 30
0.0
  9
$EXTMAX
 10
10998.3735351563
 20
9616.803466796898
 30
0.0
  9
$LIMMIN
 10
0.0
 20
0.0
  9
$LIMMAX
 10
10998.3735351563
 20
9616.803466796898
  9
$ORTHOMODE
 70
     0
  9
$REGENMODE
 70
     1
  9
$FILLMODE
 70
     1
  9
$QTEXTMODE
 70
     0
  9
$MIRRTEXT
 70
     0
  9
$LTSCALE
 40
626.8731148726999
  9
$ATTMODE
 70
     1
  9
$TEXTSIZE
 40
0.2
  9
$TRACEWID
 40
0.05
  9
$TEXTSTYLE
  7
STANDARD
  9
$CLAYER
  8
0
  9
$CELTYPE
  6
BYLAYER
  9
$CECOLOR
 62
   256
  9
$CELTSCALE
 40
1.0
  9
$DISPSILH
 70
     0
  9
$DIMSCALE
 40
1.0
  9
$DIMASZ
 40
3.5
  9
$DIMEXO
 40
71.23558123550001
  9
$DIMDLI
 40
433.112333912
  9
$DIMRND
 40
0.0
  9
$DIMDLE
 40
0.0
  9
$DIMEXE
 40
205.1584739583
  9
$DIMTP
 40
0.01
  9
$DIMTM
 40
0.01
  9
$DIMTXT
 40
3.5
  9
$DIMCEN
 40
102.5792369792
  9
$DIMTSZ
 40
0.0
  9
$DIMTOL
 70
     1
  9
$DIMLIM
 70
     0
  9
$DIMTIH
 70
     1
  9
$DIMTOH
 70
     1
  9
$DIMSE1
 70
     0
  9
$DIMSE2
 70
     0
  9
$DIMTAD
 70
     0
  9
$DIMZIN
 70
     0
  9
$DIMBLK
  1

  9
$DIMASO
 70
     1
  9
$DIMSHO
 70
     1
  9
$DIMPOST
  1

  9
$DIMAPOST
  1

  9
$DIMALT
 70
     0
  9
$DIMALTD
 70
     2
  9
$DIMALTF
 40
25.4
  9
$DIMLFAC
 40
1.0
  9
$DIMTOFL
 70
     0
  9
$DIMTVP
 40
0.0
  9
$DIMTIX
 70
     0
  9
$DIMSOXD
 70
     0
  9
$DIMSAH
 70
     0
  9
$DIMBLK1
  1

  9
$DIMBLK2
  1

  9
$DIMSTYLE
  2
STANDARD
  9
$DIMCLRD
 70
     0
  9
$DIMCLRE
 70
     0
  9
$DIMCLRT
 70
     0
  9
$DIMTFAC
 40
1.0
  9
$DIMGAP
 40
0.09
  9
$DIMJUST
 70
     0
  9
$DIMSD1
 70
     0
  9
$DIMSD2
 70
     0
  9
$DIMTOLJ
 70
     1
  9
$DIMTZIN
 70
     0
  9
$DIMALTZ
 70
     0
  9
$DIMALTTZ
 70
     0
  9
$DIMUPT
 70
     0
  9
$DIMDEC
 70
     4
  9
$DIMTDEC
 70
     4
  9
$DIMALTU
 70
     2
  9
$DIMALTTD
 70
     2
  9
$DIMTXSTY
  7
STANDARD
  9
$DIMAUNIT
 70
     0
  9
$DIMADEC
 70
     0
  9
$DIMALTRND
 40
0.0
  9
$DIMAZIN
 70
     0
  9
$DIMDSEP
 70
    46
  9
$DIMATFIT
 70
     3
  9
$DIMFRAC
 70
     0
  9
$DIMLDRBLK
  1

  9
$DIMLUNIT
 70
     2
  9
$DIMLWD
 70
    -2
  9
$DIMLWE
 70
    -2
  9
$DIMTMOVE
 70
     0
  9
$DIMFXL
 40
1.0
  9
$DIMFXLON
 70
     0
  9
$DIMJOGANG
 40
0.7853981633974483
  9
$DIMTFILL
 70
     0
  9
$DIMTFILLCLR
 70
     0
  9
$DIMARCSYM
 70
     0
  9
$DIMLTYPE
  6

  9
$DIMLTEX1
  6

  9
$DIMLTEX2
  6

  9
$LUNITS
 70
     2
  9
$LUPREC
 70
     4
  9
$SKETCHINC
 40
0.1
  9
$FILLETRAD
 40
0.0
  9
$AUNITS
 70
     0
  9
$AUPREC
 70
     0
  9
$MENU
  1
.
  9
$ELEVATION
 40
0.0
  9
$PELEVATION
 40
0.0
  9
$THICKNESS
 40
0.0
  9
$LIMCHECK
 70
     0
  9
$CHAMFERA
 40
0.0
  9
$CHAMFERB
 40
0.0
  9
$CHAMFERC
 40
0.0
  9
$CHAMFERD
 40
0.0
  9
$SKPOLY
 70
     0
  9
$TDCREATE
 40
2458993.870059850
  9
$TDUCREATE
 40
2458993.870059850
  9
$TDUPDATE
 40
2458995.892458403
  9
$TDUUPDATE
 40
2458995.892458403
  9
$TDINDWG
 40
0.0039995718
  9
$TDUSRTIMER
 40
0.0039995718
  9
$USRTIMER
 70
     1
  9
$ANGBASE
 50
0.0
  9
$ANGDIR
 70
     0
  9
$PDMODE
 70
     3
  9
$PDSIZE
 40
8.0
  9
$PLINEWID
 40
0.0
  9
$SPLFRAME
 70
     0
  9
$SPLINETYPE
 70
     6
  9
$SPLINESEGS
 70
     8
  9
$HANDSEED
  5
960
  9
$SURFTAB1
 70
     6
  9
$SURFTAB2
 70
     6
  9
$SURFTYPE
 70
     6
  9
$SURFU
 70
     6
  9
$SURFV
 70
     6
  9
$UCSBASE
  2

  9
$UCSNAME
  2

  9
$UCSORG
 10
0.0
 20
0.0
 30
0.0
  9
$UCSXDIR
 10
1.0
 20
0.0
 30
0.0
  9
$UCSYDIR
 10
0.0
 20
1.0
 30
0.0
  9
$UCSORTHOREF
  2

  9
$UCSORTHOVIEW
 70
     0
  9
$UCSORGTOP
 10
0.0
 20
0.0
 30
0.0
  9
$UCSORGBOTTOM
 10
0.0
 20
0.0
 30
0.0
  9
$UCSORGLEFT
 10
0.0
 20
0.0
 30
0.0
  9
$UCSORGRIGHT
 10
0.0
 20
0.0
 30
0.0
  9
$UCSORGFRONT
 10
0.0
 20
0.0
 30
0.0
  9
$UCSORGBACK
 10
0.0
 20
0.0
 30
0.0
  9
$PUCSBASE
  2

  9
$PUCSNAME
  2

  9
$PUCSORG
 10
0.0
 20
0.0
 30
0.0
  9
$PUCSXDIR
 10
1.0
 20
0.0
 30
0.0
  9
$PUCSYDIR
 10
0.0
 20
1.0
 30
0.0
  9
$PUCSORTHOREF
  2

  9
$PUCSORTHOVIEW
 70
     0
  9
$PUCSORGTOP
 10
0.0
 20
0.0
 30
0.0
  9
$PUCSORGBOTTOM
 10
0.0
 20
0.0
 30
0.0
  9
$PUCSORGLEFT
 10
0.0
 20
0.0
 30
0.0
  9
$PUCSORGRIGHT
 10
0.0
 20
0.0
 30
0.0
  9
$PUCSORGFRONT
 10
0.0
 20
0.0
 30
0.0
  9
$PUCSORGBACK
 10
0.0
 20
0.0
 30
0.0
  9
$USERI1
 70
     0
  9
$USERI2
 70
     0
  9
$USERI3
 70
     0
  9
$USERI4
 70
     0
  9
$USERI5
 70
     0
  9
$USERR1
 40
0.0
  9
$USERR2
 40
0.0
  9
$USERR3
 40
0.0
  9
$USERR4
 40
0.0
  9
$USERR5
 40
0.0
  9
$WORLDVIEW
 70
     1
  9
$SHADEDGE
 70
     3
  9
$SHADEDIF
 70
    70
  9
$TILEMODE
 70
     1
  9
$MAXACTVP
 70
    64
  9
$PINSBASE
 10
0.0
 20
0.0
 30
0.0
  9
$PLIMCHECK
 70
     0
  9
$PEXTMIN
 10
1.000000000000000E+20
 20
1.000000000000000E+20
 30
1.000000000000000E+20
  9
$PEXTMAX
 10
-1.000000000000000E+20
 20
-1.000000000000000E+20
 30
-1.000000000000000E+20
  9
$PLIMMIN
 10
0.0
 20
0.0
  9
$PLIMMAX
 10
12.0
 20
9.0
  9
$UNITMODE
 70
     0
  9
$VISRETAIN
 70
     1
  9
$PLINEGEN
 70
     0
  9
$PSLTSCALE
 70
     1
  9
$TREEDEPTH
 70
  3020
  9
$CMLSTYLE
  2
Standard
  9
$CMLJUST
 70
     0
  9
$CMLSCALE
 40
1.0
  9
$PROXYGRAPHICS
 70
     1
  9
$MEASUREMENT
 70
     0
  9
$CELWEIGHT
370
    -1
  9
$ENDCAPS
280
     0
  9
$JOINSTYLE
280
     0
  9
$LWDISPLAY
290
     0
  9
$INSUNITS
 70
     1
  9
$HYPERLINKBASE
  1

  9
$STYLESHEET
  1

  9
$XEDIT
290
     1
  9
$CEPSNTYPE
380
     0
  9
$PSTYLEMODE
290
     1
  9
$FINGERPRINTGUID
  2
{78E82F75-EBDF-4D58-8170-2E8C26004A6A}
  9
$VERSIONGUID
  2
{13F12269-5C81-4513-8B87-F33FD0759856}
  9
$EXTNAMES
290
     1
  9
$PSVPSCALE
 40
0.0
  9
$OLESTARTUP
290
     0
  9
$SORTENTS
280
   127
  9
$INDEXCTL
280
     0
  9
$HIDETEXT
280
     1
  9
$XCLIPFRAME
290
     0
  9
$HALOGAP
280
     0
  9
$OBSCOLOR
 70
   257
  9
$OBSLTYPE
280
     0
  9
$INTERSECTIONDISPLAY
280
     0
  9
$INTERSECTIONCOLOR
 70
   257
  9
$DIMASSOC
280
     2
  9
$PROJECTNAME
  1

  9
$CAMERADISPLAY
290
     0
  9
$LENSLENGTH
 40
50.0
  9
$CAMERAHEIGHT
 40
0.0
  9
$STEPSPERSEC
 40
2.0
  9
$STEPSIZE
 40
6.0
  9
$3DDWFPREC
 40
2.0
  9
$PSOLWIDTH
 40
0.25
  9
$PSOLHEIGHT
 40
4.0
  9
$LOFTANG1
 40
1.570796326794896
  9
$LOFTANG2
 40
1.570796326794896
  9
$LOFTMAG1
 40
0.0
  9
$LOFTMAG2
 40
0.0
  9
$LOFTPARAM
 70
     7
  9
$LOFTNORMALS
280
     1
  9
$LATITUDE
 40
37.795
  9
$LONGITUDE
 40
-122.394
  9
$NORTHDIRECTION
 40
0.0
  9
$TIMEZONE
 70
 -8000
  9
$LIGHTGLYPHDISPLAY
280
     1
  9
$TILEMODELIGHTSYNCH
280
     1
  9
$CMATERIAL
347
8F3
  9
$SOLIDHIST
280
     1
  9
$SHOWHIST
280
     1
  9
$DWFFRAME
280
     2
  9
$DGNFRAME
280
     0
  9
$REALWORLDSCALE
290
     1
  9
$INTERFERECOLOR
 62
     1
  9
$INTERFEREOBJVS
345
915
  9
$INTERFEREVPVS
346
912
  9
$CSHADOW
280
     0
  9
$SHADOWPLANELOCATION
 40
0.0
  0
ENDSEC
  0
SECTION
  2
CLASSES
  0
CLASS
  1
ACDBDICTIONARYWDFLT
  2
AcDbDictionaryWithDefault
  3
ObjectDBX Classes
 90
        0
 91
        1
280
     0
281
     0
  0
CLASS
  1
MATERIAL
  2
AcDbMaterial
  3
ObjectDBX Classes
 90
     1153
 91
        3
280
     0
281
     0
  0
CLASS
  1
VISUALSTYLE
  2
AcDbVisualStyle
  3
ObjectDBX Classes
 90
     4095
 91
       16
280
     0
281
     0
  0
CLASS
  1
TABLESTYLE
  2
AcDbTableStyle
  3
ObjectDBX Classes
 90
     4095
 91
        1
280
     0
281
     0
  0
CLASS
  1
SCALE
  2
AcDbScale
  3
ObjectDBX Classes
 90
     1153
 91
       33
280
     0
281
     0
  0
CLASS
  1
MLEADERSTYLE
  2
AcDbMLeaderStyle
  3
ACDB_MLEADERSTYLE_CLASS
 90
     4095
 91
        1
280
     0
281
     0
  0
CLASS
  1
CELLSTYLEMAP
  2
AcDbCellStyleMap
  3
ObjectDBX Classes
 90
     1152
 91
        2
280
     0
281
     0
  0
CLASS
  1
DICTIONARYVAR
  2
AcDbDictionaryVar
  3
ObjectDBX Classes
 90
        0
 91
        3
280
     0
281
     0
  0
ENDSEC
  0
SECTION
  2
TABLES
  0
TABLE
  2
VPORT
  5
8
330
0
100
AcDbSymbolTable
 70
     1
  0
VPORT
  5
1F4
330
8
100
AcDbSymbolTableRecord
100
AcDbViewportTableRecord
  2
*ACTIVE
 70
     0
 10
0.0
 20
0.0
 11
1.0
 21
1.0
 12
5535.237974033968
 22
4826.073858285446
 13
0.0
 23
0.0
 14
1.0
 24
1.0
 15
0.0
 25
0.0
 16
0.0
 26
0.0
 36
1.0
 17
0.0
 27
0.0
 37
0.0
 40
9662.036458683767
 41
2.156626506024096
 42
50.0
 43
0.0
 44
0.0
 50
0.0
 51
0.0
 71
     0
 72
   100
 73
     1
 74
     1
 75
     0
 76
     0
 77
     0
 78
     0
281
     0
 65
     1
110
0.0
120
0.0
130
0.0
111
1.0
121
0.0
131
0.0
112
0.0
122
1.0
132
0.0
 79
     0
146
0.0
348
911
 60
     3
 61
     5
292
     1
282
     1
141
0.0
142
0.0
 63
   250
421
  3355443
  0
ENDTAB
  0
TABLE
  2
LTYPE
  5
5
330
0
100
AcDbSymbolTable
 70
     6
  0
LTYPE
  5
14
330
5
100
AcDbSymbolTableRecord
100
AcDbLinetypeTableRecord
  2
BYBLOCK
 70
     0
  3

 72
    65
 73
     0
 40
0.0
  0
LTYPE
  5
15
330
5
100
AcDbSymbolTableRecord
100
AcDbLinetypeTableRecord
  2
BYLAYER
 70
     0
  3

 72
    65
 73
     0
 40
0.0
  0
LTYPE
  5
16
330
5
100
AcDbSymbolTableRecord
100
AcDbLinetypeTableRecord
  2
CONTINUOUS
 70
     0
  3
Solid line
 72
    65
 73
     0
 40
0.0
  0
LTYPE
  5
1F5
330
5
100
AcDbSymbolTableRecord
100
AcDbLinetypeTableRecord
  2
CENTER
 70
     0
  3
____ _ ____ _ ____ _ ____ _ ____ _ ____ _ ____
 72
    65
 73
     4
 40
0.6
 49
0.375
 74
     0
 49
-0.075
 74
     0
 49
0.075
 74
     0
 49
-0.075
 74
     0
  0
LTYPE
  5
1F6
330
5
100
AcDbSymbolTableRecord
100
AcDbLinetypeTableRecord
  2
HIDDEN
 70
     0
  3
- - - - - - - - - - - - - - - - - - - -
 72
    65
 73
     2
 40
0.2
 49
0.1
 74
     0
 49
-0.1
 74
     0
  0
LTYPE
  5
1F7
330
5
100
AcDbSymbolTableRecord
100
AcDbLinetypeTableRecord
  2
PHANTOM
 70
     0
  3
_____ _ _ _____ _ _ _____ _ _ _____
 72
    65
 73
     6
 40
0.8
 49
0.45
 74
     0
 49
-0.05
 74
     0
 49
0.1
 74
     0
 49
-0.05
 74
     0
 49
0.1
 74
     0
 49
-0.05
 74
     0
  0
LTYPE
  5
1F8
330
5
100
AcDbSymbolTableRecord
100
AcDbLinetypeTableRecord
  2
DOT
 70
     0
  3
. . . . . . . . . . . . . . . . . . . .
 72
    65
 73
     2
 40
0.2
 49
0.1
 74
     0
 49
-0.1
 74
     0
  0
LTYPE
  5
1F9
330
5
100
AcDbSymbolTableRecord
100
AcDbLinetypeTableRecord
  2
DASHED
 70
     0
  3
- - - - - - - - - - - - - - - - - - - -
 72
    65
 73
     2
 40
0.2
 49
0.1
 74
     0
 49
-0.1
 74
     0
  0
ENDTAB
  0
TABLE
  2
LAYER
  5
2
330
0
100
AcDbSymbolTable
 70
     4
  0
LAYER
  5
10
102
{ACAD_XDICTIONARY
360
950
102
}
330
2
100
AcDbSymbolTableRecord
100
AcDbLayerTableRecord
  2
0
 70
     0
 62
     7
  6
CONTINUOUS
370
    -3
390
F
347
903
  0
LAYER
  5
1FA
102
{ACAD_XDICTIONARY
360
952
102
}
330
2
100
AcDbSymbolTableRecord
100
AcDbLayerTableRecord
  2
DEFAULT_1
 70
     0
 62
     7
  6
CENTER
370
    -3
390
F
347
903
  0
LAYER
  5
1FB
102
{ACAD_XDICTIONARY
360
954
102
}
330
2
100
AcDbSymbolTableRecord
100
AcDbLayerTableRecord
  2
DEFAULT_2
 70
     0
 62
     8
  6
HIDDEN
370
    -3
390
F
347
903
  0
LAYER
  5
1FC
102
{ACAD_XDICTIONARY
360
956
102
}
330
2
100
AcDbSymbolTableRecord
100
AcDbLayerTableRecord
  2
DEFAULT_3
 70
     0
 62
     7
  6
PHANTOM
370
    -3
390
F
347
903
  0
ENDTAB
  0
TABLE
  2
STYLE
  5
3
330
0
100
AcDbSymbolTable
 70
     2
  0
STYLE
  5
11
330
3
100
AcDbSymbolTableRecord
100
AcDbTextStyleTableRecord
  2
STANDARD
 70
     0
 40
0.0
 41
0.85
 50
0.0
 71
     0
 42
0.2
  3
txt
  4

  0
STYLE
  5
1FD
330
3
100
AcDbSymbolTableRecord
100
AcDbTextStyleTableRecord
  2
TEXTSTYLE_1
 70
     0
 40
0.0
 41
0.8
 50
0.0
 71
     0
 42
0.2
  3
gdt
  4

  0
ENDTAB
  0
TABLE
  2
VIEW
  5
6
330
0
100
AcDbSymbolTable
 70
     0
  0
ENDTAB
  0
TABLE
  2
UCS
  5
7
330
0
100
AcDbSymbolTable
 70
     0
  0
ENDTAB
  0
TABLE
  2
APPID
  5
9
330
0
100
AcDbSymbolTable
 70
     2
  0
APPID
  5
1FE
330
9
100
AcDbSymbolTableRecord
100
AcDbRegAppTableRecord
  2
ACAD
 70
     0
  0
APPID
  5
943
330
9
100
AcDbSymbolTableRecord
100
AcDbRegAppTableRecord
  2
ACAD_MLEADERVER
 70
     0
  0
ENDTAB
  0
TABLE
  2
DIMSTYLE
  5
A
330
0
100
AcDbSymbolTable
 70
     1
100
AcDbDimStyleTable
 71
     0
  0
DIMSTYLE
105
201
330
A
100
AcDbSymbolTableRecord
100
AcDbDimStyleTableRecord
  2
STANDARD
 70
     0
 41
3.5
 47
0.01
 48
0.01
 71
     1
 73
     0
 74
     0
 77
     1
 78
     8
140
3.5
271
     2
272
     2
284
     8
340
11
  0
ENDTAB
  0
TABLE
  2
BLOCK_RECORD
  5
1
330
0
100
AcDbSymbolTable
 70
     0
  0
BLOCK_RECORD
  5
1FF
330
1
100
AcDbSymbolTableRecord
100
AcDbBlockTableRecord
  2
*Model_Space
340
8EE
 70
     0
280
     1
281
     0
  0
BLOCK_RECORD
  5
200
330
1
100
AcDbSymbolTableRecord
100
AcDbBlockTableRecord
  2
*Paper_Space
340
8EF
 70
     0
280
     1
281
     0
  0
ENDTAB
  0
ENDSEC
  0
SECTION
  2
BLOCKS
  0
BLOCK
  5
20
330
1FF
100
AcDbEntity
  8
0
100
AcDbBlockBegin
  2
*Model_Space
 70
     0
 10
0.0
 20
0.0
 30
0.0
  3
*Model_Space
  1

  0
ENDBLK
  5
21
330
1FF
100
AcDbEntity
  8
0
100
AcDbBlockEnd
  0
BLOCK
  5
1C
330
200
100
AcDbEntity
 67
     1
  8
0
100
AcDbBlockBegin
  2
*Paper_Space
 70
     0
 10
0.0
 20
0.0
 30
0.0
  3
*Paper_Space
  1

  0
ENDBLK
  5
1D
330
200
100
AcDbEntity
 67
     1
  8
0
100
AcDbBlockEnd
  0
ENDSEC
  0
SECTION
  2
ENTITIES
  0
LINE
  5
221
330
1FF
100
AcDbEntity
  8
0
  6
Continuous
 62
     7
100
AcDbLine
 10
438.7216796875
 20
996.3391113281
 30
0.0
 11
700.8984374999999
 21
865.7585449219
 31
0.0
  0
LINE
  5
222
330
1FF
100
AcDbEntity
  8
0
  6
Continuous
 62
     7
100
AcDbLine
 10
413.5615234374999
 20
940.9033203125
 30
0.0
 11
438.7216796875
 21
927.8645019530999
 31
0.0
  0
LINE
  5
224
330
1FF
100
AcDbEntity
  8
0
  6
Continuous
 62
     7
100
AcDbLine
 10
17.7763671875
 20
5854.3198242188
 30
0.0
 11
17.7763671875
 21
5974.3471679687
 31
0.0
  0
LINE
  5
225
330
1FF
100
AcDbEntity
  8
0
  6
Continuous
 62
     7
100
AcDbLine
 10
77.33154296880001
 20
4897.02734375
 30
0.0
 11
77.33154296880001
 21
5005.904174804699
 31
0.0
  0
LINE
  5
226
330
1FF
100
AcDbEntity
  8
0
  6
Continuous
 62
     7
100
AcDbLine
 10
83.12158203119999
 20
2713.6578979492
 30
0.0
 11
83.12158203119999
 21
2811.4606323242
 31
0.0
  0
LINE
  5
227
330
1FF
100
AcDbEntity
  8
0
  6
Continuous
 62
     7
100
AcDbLine
 10
93.478515625
 20
1829.2481689453
 30
0.0
 11
93.478515625
 21
6215.5
 31
0.0
  0
LINE
  5
228
330
1FF
100
AcDbEntity
  8
0
  6
Continuous
 62
     7
100
AcDbLine
 10
96.63964843750001
 20
2846.133972168
 30
0.0
 11
96.63964843750001
 21
5147.484008789099
 31
0.0
  0
LINE
  5
229
330
1FF
100
AcDbEntity
  8
0
  6
Continuous
 62
     7
100
AcDbLine
 10
139.208984375
 20
1829.2481689453
 30
0.0
 11
139.208984375
 21
2846.133972168
 31
0.0
  0
LINE
  5
22A
330
1FF
100
AcDbEntity
  8
0
  6
Continuous
 62
     7
100
AcDbLine
 10
139.208984375
 20
5147.0944824219
 30
0.0
 11
139.208984375
 21
6215.5
 31
0.0
  0
LINE
  5
22B
330
1FF
100
AcDbEntity
  8
0
  6
Continuous
 62
     7
100
AcDbLine
 10
184.7172851563
 20
6233.777099609399
 30
0.0
 11
184.7172851563
 21
6308.1796875
 31
0.0
  0
LINE
  5
22C
330
1FF
100
AcDbEntity
  8
0
  6
Continuous
 62
     7
100
AcDbLine
 10
186.4140625
 20
5974.3752441406
 30
0.0
 11
186.4140625
 21
6233.748046875
 31
0.0
  0
LINE
  5
22D
330
1FF
100
AcDbEntity
  8
0
  6
Continuous
 62
     7
100
AcDbLine
 10
195.5122070312
 20
5393.612426757801
 30
0.0
 11
195.5122070312
 21
6348.9763183594
 31
0.0
  0
LINE
  5
22E
330
1FF
100
AcDbEntity
  8
0
  6
Continuous
 62
     7
100
AcDbLine
 10
259.0122070313
 20
5393.612426757801
 30
0.0
 11
259.0122070313
 21
6348.9763183594
 31
0.0
  0
LINE
  5
22F
330
1FF
100
AcDbEntity
  8
0
  6
Continuous
 62
     7
100
AcDbLine
 10
293.0869140625
 20
5285.9266357422
 30
0.0
 11
293.0869140625
 21
6448.523193359399
 31
0.0
  0
LINE
  5
230
330
1FF
100
AcDbEntity
  8
0
  6
Continuous
 62
     7
100
AcDbLine
 10
309.0942382813
 20
6448.4919433594
 30
0.0
 11
309.0942382813
 21
6533.8493652344
 31
0.0
  0
LINE
  5
231
330
1FF
100
AcDbEntity
  8
0
  6
Continuous
 62
     7
100
AcDbLine
 10
330.2163085938
 20
6533.8249511719
 30
0.0
 11
330.2163085938
 21
7246.0817871094
 31
0.0
  0
LINE
  5
232
330
1FF
100
AcDbEntity
  8
0
  6
Continuous
 62
     7
100
AcDbLine
 10
10021.9809570313
 20
135.4396972656
 30
0.0
 11
10290.3344726563
 21
169.5031738281
 31
0.0
  0
LINE
  5
233
330
1FF
100
AcDbEntity
  8
0
  6
Continuous
 62
     7
100
AcDbLine
 10
10290.3344726563
 20
14.9333496094
 30
0.0
 11
10559.654296875
 21
46.3713378906
 31
0.0
  0
LINE
  5
234
330
1FF
100
AcDbEntity
  8
0
  6
Continuous
 62
     7
100
AcDbLine
 10
438.7216796875
 20
46.3713378906
 30
0.0
 11
708.0415039062
 21
14.9333496094
 31
0.0
  0
LINE
  5
235
330
1FF
100
AcDbEntity
  8
0
  6
Continuous
 62
     7
100
AcDbLine
 10
2267.6867675781
 20
169.5031738281
 30
0.0
 11
2859.6645507813
 21
14.9333496094
 31
0.0
  0
LINE
  5
236
330
1FF
100
AcDbEntity
  8
0
  6
Continuous
 62
     7
100
AcDbLine
 10
774.0126953125
 20
4939.1789550781
 30
0.0
 11
773.9506835938
 21
4941.3937988281
 31
0.0
  0
LINE
  5
237
330
1FF
100
AcDbEntity
  8
0
  6
Continuous
 62
     7
100
AcDbLine
 10
773.9877929688
 20
4939.6752929688
 30
0.0
 11
773.9658203124999
 21
4942.462646484401
 31
0.0
  0
LINE
  5
238
330
1FF
100
AcDbEntity
  8
0
  6
Continuous
 62
     7
100
AcDbLine
 10
388.916015625
 20
3936.6025390625
 30
0.0
 11
388.916015625
 21
4437.6187744141
 31
0.0
  0
LINE
  5
239
330
1FF
100
AcDbEntity
  8
0
  6
Continuous
 62
     7
100
AcDbLine
 10
413.5615234374999
 20
940.9033203125
 30
0.0
 11
413.5615234374999
 21
1928.6221923828
 31
0.0
  0
LINE
  5
23A
330
1FF
100
AcDbEntity
  8
0
  6
Continuous
 62
     7
100
AcDbLine
 10
438.7216796875
 20
46.3713378906
 30
0.0
 11
438.7216796875
 21
996.3391113281
 31
0.0
  0
LINE
  5
23B
330
1FF
100
AcDbEntity
  8
0
  6
Continuous
 62
     7
100
AcDbLine
 10
438.7216796875
 20
1924.5942382812
 30
0.0
 11
438.7216796875
 21
2846.168273925801
 31
0.0
  0
LINE
  5
23C
330
1FF
100
AcDbEntity
  8
0
  6
Continuous
 62
     7
100
AcDbLine
 10
489.5263671875
 20
6533.8464355469
 30
0.0
 11
489.5263671875
 21
7246.0817871094
 31
0.0
  0
LINE
  5
23D
330
1FF
100
AcDbEntity
  8
0
  6
Continuous
 62
     7
100
AcDbLine
 10
563.0937499999999
 20
6448.4919433594
 30
0.0
 11
563.0937499999999
 21
6533.8493652344
 31
0.0
  0
LINE
  5
23E
330
1FF
100
AcDbEntity
  8
0
  6
Continuous
 62
     7
100
AcDbLine
 10
572.4873046875
 20
5285.9266357422
 30
0.0
 11
572.4873046875
 21
5302.0219726563
 31
0.0
  0
LINE
  5
23F
330
1FF
100
AcDbEntity
  8
0
  6
Continuous
 62
     7
100
AcDbLine
 10
572.4873046875
 20
5302.034912109401
 30
0.0
 11
572.4873046875
 21
5378.2644042969
 31
0.0
  0
LINE
  5
240
330
1FF
100
AcDbEntity
  8
0
  6
Continuous
 62
     7
100
AcDbLine
 10
572.4873046875
 20
5378.2766113281
 30
0.0
 11
572.4873046875
 21
6448.523193359399
 31
0.0
  0
LINE
  5
241
330
1FF
100
AcDbEntity
  8
0
  6
Continuous
 62
     7
100
AcDbLine
 10
598.1791992188
 20
2141.0100097656
 30
0.0
 11
598.1791992188
 21
2426.363159179701
 31
0.0
  0
LINE
  5
242
330
1FF
100
AcDbEntity
  8
0
  6
Continuous
 62
     7
100
AcDbLine
 10
605.4565429688
 20
3433.2791900635
 30
0.0
 11
605.4565429688
 21
3696.623764038101
 31
0.0
  0
LINE
  5
243
330
1FF
100
AcDbEntity
  8
0
  6
Continuous
 62
     7
100
AcDbLine
 10
607.94921875
 20
5417.5935058594
 30
0.0
 11
607.94921875
 21
6372.95703125
 31
0.0
  0
LINE
  5
244
330
1FF
100
AcDbEntity
  8
0
  6
Continuous
 62
     7
100
AcDbLine
 10
655.8911132813
 20
3402.6124572754
 30
0.0
 11
655.8911132813
 21
3463.9428710938
 31
0.0
  0
LINE
  5
245
330
1FF
100
AcDbEntity
  8
0
  6
Continuous
 62
     7
100
AcDbLine
 10
655.8911132813
 20
3479.1104888916
 30
0.0
 11
655.8911132813
 21
3737.388000488301
 31
0.0
  0
LINE
  5
246
330
1FF
100
AcDbEntity
  8
0
  6
Continuous
 62
     7
100
AcDbLine
 10
671.44921875
 20
5417.5935058594
 30
0.0
 11
671.44921875
 21
6372.95703125
 31
0.0
  0
LINE
  5
247
330
1FF
100
AcDbEntity
  8
0
  6
Continuous
 62
     7
100
AcDbLine
 10
674.5185546874999
 20
6044.4345703125
 30
0.0
 11
674.5185546874999
 21
6233.748046875
 31
0.0
  0
LINE
  5
248
330
1FF
100
AcDbEntity
  8
0
  6
Continuous
 62
     7
100
AcDbLine
 10
686.6831054687
 20
6233.777099609399
 30
0.0
 11
686.6831054687
 21
6308.1833496094
 31
0.0
  0
LINE
  5
249
330
1FF
100
AcDbEntity
  8
0
  6
Continuous
 62
     7
100
AcDbLine
 10
700.8984374999999
 20
865.7585449219
 30
0.0
 11
700.8984374999999
 21
1779.7156982422
 31
0.0
  0
LINE
  5
24A
330
1FF
100
AcDbEntity
  8
0
  6
Continuous
 62
     7
100
AcDbLine
 10
706.3256835938
 20
3433.2791900635
 30
0.0
 11
706.3256835938
 21
3696.623764038101
 31
0.0
  0
LINE
  5
24B
330
1FF
100
AcDbEntity
  8
0
  6
Continuous
 62
     7
100
AcDbLine
 10
708.0415039062
 20
14.9333496094
 30
0.0
 11
708.0415039062
 21
873.66796875
 31
0.0
  0
LINE
  5
24C
330
1FF
100
AcDbEntity
  8
0
  6
Continuous
 62
     7
100
AcDbLine
 10
708.0415039062
 20
1818.1882324219
 30
0.0
 11
708.0415039062
 21
2141.0100097656
 31
0.0
  0
LINE
  5
24D
330
1FF
100
AcDbEntity
  8
0
  6
Continuous
 62
     7
100
AcDbLine
 10
708.0415039062
 20
2313.9516601562
 30
0.0
 11
708.0415039062
 21
2602.4877319336
 31
0.0
  0
LINE
  5
24E
330
1FF
100
AcDbEntity
  8
0
  6
Continuous
 62
     7
100
AcDbLine
 10
715.0590820311999
 20
5541.278564453101
 30
0.0
 11
715.0590820311999
 21
6290.3337402344
 31
0.0
  0
LINE
  5
24F
330
1FF
100
AcDbEntity
  8
DEFAULT_1
  6
CENTER
 62
     7
100
AcDbLine
 10
739.9160156249999
 20
2454.9008789062
 30
0.0
 11
739.9160156249999
 21
2112.447265625
 31
0.0
  0
LINE
  5
250
330
1FF
100
AcDbEntity
  8
0
  6
Continuous
 62
     7
100
AcDbLine
 10
765.8588867188
 20
5541.1142578125
 30
0.0
 11
765.8588867188
 21
6290.4108886719
 31
0.0
  0
LINE
  5
251
330
1FF
100
AcDbEntity
  8
0
  6
Continuous
 62
     7
100
AcDbLine
 10
773.9506835938
 20
4932.8012695312
 30
0.0
 11
773.9506835938
 21
6210.7683105469
 31
0.0
  0
LINE
  5
252
330
1FF
100
AcDbEntity
  8
0
  6
Continuous
 62
     7
100
AcDbLine
 10
778.2744140624999
 20
4669.1281738281
 30
0.0
 11
778.2744140624999
 21
4670.233276367199
 31
0.0
  0
LINE
  5
253
330
1FF
100
AcDbEntity
  8
0
  6
Continuous
 62
     7
100
AcDbLine
 10
413.5615234374999
 20
1928.6221923828
 30
0.0
 11
420.7045898437
 21
2215.8557128906
 31
0.0
  0
LINE
  5
254
330
1FF
100
AcDbEntity
  8
0
  6
Continuous
 62
     7
100
AcDbLine
 10
791.0415039063
 20
6210.7683105469
 30
0.0
 11
791.8359375
 21
6214.0322265625
 31
0.0
  0
LINE
  5
255
330
1FF
100
AcDbEntity
  8
0
  6
Continuous
 62
     7
100
AcDbLine
 10
840.8120117186999
 20
6210.7683105469
 30
0.0
 11
840.017578125
 21
6207.505126953101
 31
0.0
  0
LINE
  5
256
330
1FF
100
AcDbEntity
  8
0
  6
Continuous
 62
     7
100
AcDbLine
 10
775.2993164063
 20
6216.2705078125
 30
0.0
 11
773.9516601563
 21
6210.7683105469
 31
0.0
  0
LINE
  5
257
330
1FF
100
AcDbEntity
  8
0
  6
Continuous
 62
     7
100
AcDbLine
 10
856.5541992187
 20
6205.265869140601
 30
0.0
 11
857.9018554688
 21
6210.7683105469
 31
0.0
  0
LINE
  5
258
330
1FF
100
AcDbEntity
  8
0
  6
Continuous
 62
     7
100
AcDbLine
 10
856.5307617188
 20
6205.2719726562
 30
0.0
 11
857.90234375
 21
6210.7683105469
 31
0.0
  0
LINE
  5
259
330
1FF
100
AcDbEntity
  8
0
  6
Continuous
 62
     7
100
AcDbLine
 10
840.0029296875
 20
6207.5090332031
 30
0.0
 11
840.81640625
 21
6210.7683105469
 31
0.0
  0
LINE
  5
25A
330
1FF
100
AcDbEntity
  8
0
  6
Continuous
 62
     7
100
AcDbLine
 10
778.5947265625
 20
6220.7841796875
 30
0.0
 11
773.9516601563
 21
6210.6247558594
 31
0.0
  0
LINE
  5
25B
330
1FF
100
AcDbEntity
  8
0
  6
Continuous
 62
     7
100
AcDbLine
 10
777.3852539062
 20
6219.4482421875
 30
0.0
 11
775.2993164063
 21
6216.2705078125
 31
0.0
  0
LINE
  5
2CC
330
1FF
100
AcDbEntity
  8
0
  6
Continuous
 62
     7
100
AcDbLine
 10
413.5615234374999
 20
1928.6221923828
 30
0.0
 11
700.8984374999999
 21
1779.7156982422
 31
0.0
  0
LINE
  5
2CD
330
1FF
100
AcDbEntity
  8
0
  6
Continuous
 62
     7
100
AcDbLine
 10
607.3471679686999
 20
3420.8589172363
 30
0.0
 11
612.7636718749999
 21
3409.5208740234
 31
0.0
  0
LINE
  5
2CE
330
1FF
100
AcDbEntity
  8
0
  6
Continuous
 62
     7
100
AcDbLine
 10
627.03515625
 20
3417.3825836182
 30
0.0
 11
623.4116210936999
 21
3424.968872070301
 31
0.0
  0
LINE
  5
2CF
330
1FF
100
AcDbEntity
  8
0
  6
Continuous
 62
     7
100
AcDbLine
 10
684.7470703125
 20
3449.173889160201
 30
0.0
 11
688.3706054688
 21
3441.587600708
 31
0.0
  0
LINE
  5
2D0
330
1FF
100
AcDbEntity
  8
0
  6
Continuous
 62
     7
100
AcDbLine
 10
704.4350585938
 20
3445.697555542
 30
0.0
 11
699.0185546874999
 21
3457.0355987549
 31
0.0
  0
LINE
  5
2D1
330
1FF
100
AcDbEntity
  8
0
  6
Continuous
 62
     7
100
AcDbLine
 10
607.3784179688
 20
3420.8646392822
 30
0.0
 11
612.7607421875
 21
3409.510574340801
 31
0.0
  0
LINE
  5
2D2
330
1FF
100
AcDbEntity
  8
0
  6
Continuous
 62
     7
100
AcDbLine
 10
623.4321289061999
 20
3424.9723052979
 30
0.0
 11
627.0332031249999
 21
3417.3757171631
 31
0.0
  0
LINE
  5
2D3
330
1FF
100
AcDbEntity
  8
0
  6
Continuous
 62
     7
100
AcDbLine
 10
688.3500976562999
 20
3441.584167480499
 30
0.0
 11
684.7485351563
 21
3449.180755615201
 31
0.0
  0
LINE
  5
2D4
330
1FF
100
AcDbEntity
  8
0
  6
Continuous
 62
     7
100
AcDbLine
 10
704.4038085938
 20
3445.6918334961
 30
0.0
 11
699.021484375
 21
3457.0458984375
 31
0.0
  0
LINE
  5
2D5
330
1FF
100
AcDbEntity
  8
0
  6
Continuous
 62
     7
100
AcDbLine
 10
706.3256835938
 20
3696.623764038101
 30
0.0
 11
702.5556640625
 21
3711.9821166992
 31
0.0
  0
LINE
  5
2D6
330
1FF
100
AcDbEntity
  8
0
  6
Continuous
 62
     7
100
AcDbLine
 10
605.4565429688
 20
3433.2780456543
 30
0.0
 11
607.3784179688
 21
3420.8646392822
 31
0.0
  0
LINE
  5
2D7
330
1FF
100
AcDbEntity
  8
0
  6
Continuous
 62
     7
100
AcDbLine
 10
622.1464843749999
 20
3433.2780456543
 30
0.0
 11
623.4321289061999
 21
3424.9723052979
 31
0.0
  0
LINE
  5
2D8
330
1FF
100
AcDbEntity
  8
0
  6
Continuous
 62
     7
100
AcDbLine
 10
689.6357421874999
 20
3433.2780456543
 30
0.0
 11
688.3500976562999
 21
3441.584167480499
 31
0.0
  0
LINE
  5
2D9
330
1FF
100
AcDbEntity
  8
0
  6
Continuous
 62
     7
100
AcDbLine
 10
706.3251953125
 20
3433.2780456543
 30
0.0
 11
704.4038085938
 21
3445.6918334961
 31
0.0
  0
LINE
  5
2DA
330
1FF
100
AcDbEntity
  8
0
  6
Continuous
 62
     7
100
AcDbLine
 10
605.4575195313
 20
3433.2780456543
 30
0.0
 11
607.3471679686999
 21
3420.8589172363
 31
0.0
  0
LINE
  5
2DB
330
1FF
100
AcDbEntity
  8
0
  6
Continuous
 62
     7
100
AcDbLine
 10
623.4116210936999
 20
3424.968872070301
 30
0.0
 11
622.1469726563
 21
3433.2780456543
 31
0.0
  0
LINE
  5
2DC
330
1FF
100
AcDbEntity
  8
0
  6
Continuous
 62
     7
100
AcDbLine
 10
688.3706054688
 20
3441.587600708
 30
0.0
 11
689.634765625
 21
3433.2780456543
 31
0.0
  0
LINE
  5
2DD
330
1FF
100
AcDbEntity
  8
0
  6
Continuous
 62
     7
100
AcDbLine
 10
706.32421875
 20
3433.2780456543
 30
0.0
 11
704.4350585938
 21
3445.697555542
 31
0.0
  0
LINE
  5
2DE
330
1FF
100
AcDbEntity
  8
0
  6
Continuous
 62
     7
100
AcDbLine
 10
976.9584960936999
 20
2762.5619506836
 30
0.0
 11
976.7744140625
 21
2811.466369628901
 31
0.0
  0
LINE
  5
2DF
330
1FF
100
AcDbEntity
  8
0
  6
Continuous
 62
     7
100
AcDbLine
 10
976.9584960936999
 20
2762.5619506836
 30
0.0
 11
976.775390625
 21
2811.4633178711
 31
0.0
  0
LINE
  5
2E0
330
1FF
100
AcDbEntity
  8
0
  6
Continuous
 62
     7
100
AcDbLine
 10
977.3618164063
 20
2708.893737793
 30
0.0
 11
976.9252929686999
 21
2845.0975341797
 31
0.0
  0
LINE
  5
2E1
330
1FF
100
AcDbEntity
  8
0
  6
Continuous
 62
     7
100
AcDbLine
 10
977.0048828125
 20
2713.665893554701
 30
0.0
 11
976.9584960936999
 21
2762.5619506836
 31
0.0
  0
LINE
  5
2E2
330
1FF
100
AcDbEntity
  8
0
  6
Continuous
 62
     7
100
AcDbLine
 10
977.0034179687
 20
2713.6578979492
 30
0.0
 11
976.9584960936999
 21
2762.5619506836
 31
0.0
  0
LINE
  5
2E3
330
1FF
100
AcDbEntity
  8
0
  6
Continuous
 62
     7
100
AcDbLine
 10
815.9267578125
 20
4878.2475585938
 30
0.0
 11
815.9267578125
 21
4879.740234375
 31
0.0
  0
LINE
  5
2E4
330
1FF
100
AcDbEntity
  8
0
  6
Continuous
 62
     7
100
AcDbLine
 10
815.9267578125
 20
4890.872314453099
 30
0.0
 11
815.9267578125
 21
6188.855224609399
 31
0.0
  0
LINE
  5
2E5
330
1FF
100
AcDbEntity
  8
0
  6
Continuous
 62
     7
100
AcDbLine
 10
815.9267578125
 20
6197.3190917969
 30
0.0
 11
815.9267578125
 21
6223.7619628906
 31
0.0
  0
LINE
  5
2E6
330
1FF
100
AcDbEntity
  8
0
  6
Continuous
 62
     7
100
AcDbLine
 10
827.3085937499999
 20
6231.8674316406
 30
0.0
 11
827.3085937499999
 21
6291.587890625
 31
0.0
  0
LINE
  5
2E7
330
1FF
100
AcDbEntity
  8
0
  6
Continuous
 62
     7
100
AcDbLine
 10
840.81640625
 20
4932.8012695312
 30
0.0
 11
840.81640625
 21
6193.1313476562
 31
0.0
  0
LINE
  5
2E8
330
1FF
100
AcDbEntity
  8
0
  6
Continuous
 62
     7
100
AcDbLine
 10
857.9028320313
 20
4932.8012695312
 30
0.0
 11
857.9028320313
 21
6210.7683105469
 31
0.0
  0
LINE
  5
2E9
330
1FF
100
AcDbEntity
  8
0
  6
Continuous
 62
     7
100
AcDbLine
 10
878.1083984374999
 20
5542.4538574219
 30
0.0
 11
878.1083984374999
 21
6291.7504882812
 31
0.0
  0
LINE
  5
2EA
330
1FF
100
AcDbEntity
  8
0
  6
Continuous
 62
     7
100
AcDbLine
 10
881.6528320313
 20
2141.0100097656
 30
0.0
 11
881.6528320313
 21
2426.363159179701
 31
0.0
  0
LINE
  5
2EF
330
1FF
100
AcDbEntity
  8
0
  6
Continuous
 62
     7
100
AcDbLine
 10
918.7104492188
 20
5492.4771728516
 30
0.0
 11
918.7104492188
 21
6251.2490234375
 31
0.0
  0
LINE
  5
30F
330
1FF
100
AcDbEntity
  8
0
  6
Continuous
 62
     7
100
AcDbLine
 10
966.3315429686999
 20
5147.420654296901
 30
0.0
 11
966.3315429686999
 21
5492.4771728516
 31
0.0
  0
LINE
  5
310
330
1FF
100
AcDbEntity
  8
0
  6
Continuous
 62
     7
100
AcDbLine
 10
966.3315429686999
 20
6251.219238281301
 30
0.0
 11
966.3315429686999
 21
6812.9541015625
 31
0.0
  0
LINE
  5
311
330
1FF
100
AcDbEntity
  8
0
  6
Continuous
 62
     7
100
AcDbLine
 10
977.3618164063
 20
46.3713378906
 30
0.0
 11
977.3618164063
 21
986.5832519531
 31
0.0
  0
LINE
  5
312
330
1FF
100
AcDbEntity
  8
0
  6
Continuous
 62
     7
100
AcDbLine
 10
977.3618164063
 20
1924.5942382812
 30
0.0
 11
977.3618164063
 21
2708.893737793
 31
0.0
  0
LINE
  5
313
330
1FF
100
AcDbEntity
  8
0
  6
Continuous
 62
     7
100
AcDbLine
 10
995.37890625
 20
930.3239746094
 30
0.0
 11
995.37890625
 21
1918.04296875
 31
0.0
  0
LINE
  5
314
330
1FF
100
AcDbEntity
  8
0
  6
Continuous
 62
     7
100
AcDbLine
 10
1002.5219726563
 20
1217.5576171875
 30
0.0
 11
1002.5219726563
 21
2205.2766113281
 31
0.0
  0
LINE
  5
315
330
1FF
100
AcDbEntity
  8
0
  6
Continuous
 62
     7
100
AcDbLine
 10
1132.6567382812
 20
5147.484008789099
 30
0.0
 11
1132.6567382812
 21
5492.4443359375
 31
0.0
  0
LINE
  5
316
330
1FF
100
AcDbEntity
  8
0
  6
Continuous
 62
     7
100
AcDbLine
 10
1132.6567382812
 20
6251.219238281301
 30
0.0
 11
1132.6567382812
 21
6812.9541015625
 31
0.0
  0
LINE
  5
317
330
1FF
100
AcDbEntity
  8
0
  6
Continuous
 62
     7
100
AcDbLine
 10
1151.7553710938
 20
5492.4771728516
 30
0.0
 11
1151.7553710938
 21
6251.2490234375
 31
0.0
  0
LINE
  5
318
330
1FF
100
AcDbEntity
  8
0
  6
Continuous
 62
     7
100
AcDbLine
 10
884.8828125
 20
4947.7475585938
 30
0.0
 11
884.8833007812
 21
4948.693969726599
 31
0.0
  0
LINE
  5
319
330
1FF
100
AcDbEntity
  8
0
  6
Continuous
 62
     7
100
AcDbLine
 10
995.37890625
 20
1918.04296875
 30
0.0
 11
1002.5219726563
 21
2205.2766113281
 31
0.0
  0
LINE
  5
31A
330
1FF
100
AcDbEntity
  8
0
  6
Continuous
 62
     7
100
AcDbLine
 10
995.37890625
 20
930.3239746094
 30
0.0
 11
1002.5219726563
 21
1217.5576171875
 31
0.0
  0
LINE
  5
31B
330
1FF
100
AcDbEntity
  8
0
  6
Continuous
 62
     7
100
AcDbLine
 10
689.634765625
 20
3433.2780456543
 30
0.0
 11
688.3706054688
 21
3424.968872070301
 31
0.0
  0
LINE
  5
31C
330
1FF
100
AcDbEntity
  8
0
  6
Continuous
 62
     7
100
AcDbLine
 10
704.4345703124999
 20
3420.8589172363
 30
0.0
 11
706.32421875
 21
3433.2780456543
 31
0.0
  0
LINE
  5
31D
330
1FF
100
AcDbEntity
  8
0
  6
Continuous
 62
     7
100
AcDbLine
 10
607.3476562499999
 20
3445.6971740723
 30
0.0
 11
605.4575195313
 21
3433.2780456543
 31
0.0
  0
LINE
  5
31E
330
1FF
100
AcDbEntity
  8
0
  6
Continuous
 62
     7
100
AcDbLine
 10
622.1469726563
 20
3433.2780456543
 30
0.0
 11
623.4116210936999
 21
3441.587600708
 31
0.0
  0
LINE
  5
31F
330
1FF
100
AcDbEntity
  8
0
  6
Continuous
 62
     7
100
AcDbLine
 10
607.3784179688
 20
3445.6918334961
 30
0.0
 11
605.4565429688
 21
3433.2780456543
 31
0.0
  0
LINE
  5
320
330
1FF
100
AcDbEntity
  8
0
  6
Continuous
 62
     7
100
AcDbLine
 10
623.4321289061999
 20
3441.584167480499
 30
0.0
 11
622.1464843749999
 21
3433.2780456543
 31
0.0
  0
LINE
  5
321
330
1FF
100
AcDbEntity
  8
0
  6
Continuous
 62
     7
100
AcDbLine
 10
688.3500976562999
 20
3424.9723052979
 30
0.0
 11
689.6357421874999
 21
3433.2780456543
 31
0.0
  0
LINE
  5
322
330
1FF
100
AcDbEntity
  8
0
  6
Continuous
 62
     7
100
AcDbLine
 10
704.4038085938
 20
3420.8646392822
 30
0.0
 11
706.3251953125
 21
3433.2780456543
 31
0.0
  0
LINE
  5
323
330
1FF
100
AcDbEntity
  8
0
  6
Continuous
 62
     7
100
AcDbLine
 10
605.4565429688
 20
3696.623764038101
 30
0.0
 11
609.2265625
 21
3711.9821166992
 31
0.0
  0
LINE
  5
324
330
1FF
100
AcDbEntity
  8
0
  6
Continuous
 62
     7
100
AcDbLine
 10
2267.6867675781
 20
8911.745849609399
 30
0.0
 11
2398.1225585938
 21
9181.066162109399
 31
0.0
  0
LINE
  5
325
330
1FF
100
AcDbEntity
  8
0
  6
Continuous
 62
     7
100
AcDbLine
 10
854.4682617188
 20
6202.0883789062
 30
0.0
 11
856.5541992187
 21
6205.265869140601
 31
0.0
  0
LINE
  5
326
330
1FF
100
AcDbEntity
  8
0
  6
Continuous
 62
     7
100
AcDbLine
 10
853.1806640624999
 20
6200.6723632813
 30
0.0
 11
856.5307617188
 21
6205.2719726562
 31
0.0
  0
LINE
  5
327
330
1FF
100
AcDbEntity
  8
0
  6
Continuous
 62
     7
100
AcDbLine
 10
835.3823242186999
 20
6202.6628417969
 30
0.0
 11
840.0029296875
 21
6207.5090332031
 31
0.0
  0
LINE
  5
328
330
1FF
100
AcDbEntity
  8
0
  6
Continuous
 62
     7
100
AcDbLine
 10
791.8359375
 20
6214.0322265625
 30
0.0
 11
796.46875
 21
6218.8698730469
 31
0.0
  0
LINE
  5
329
330
1FF
100
AcDbEntity
  8
0
  6
Continuous
 62
     7
100
AcDbLine
 10
840.017578125
 20
6207.505126953101
 30
0.0
 11
835.3842773438
 21
6202.666748046899
 31
0.0
  0
LINE
  5
32A
330
1FF
100
AcDbEntity
  8
0
  6
Continuous
 62
     7
100
AcDbLine
 10
438.7216796875
 20
1924.5942382812
 30
0.0
 11
708.0415039062
 21
1818.1882324219
 31
0.0
  0
LINE
  5
32B
330
1FF
100
AcDbEntity
  8
0
  6
Continuous
 62
     7
100
AcDbLine
 10
977.353515625
 20
2218.3194580078
 30
0.0
 11
1002.5219726563
 21
2205.2766113281
 31
0.0
  0
LINE
  5
32C
330
1FF
100
AcDbEntity
  8
0
  6
Continuous
 62
     7
100
AcDbLine
 10
627.0332031249999
 20
3417.3757171631
 30
0.0
 11
634.8110351563
 21
3409.3324279785
 31
0.0
  0
LINE
  5
32D
330
1FF
100
AcDbEntity
  8
0
  6
Continuous
 62
     7
100
AcDbLine
 10
699.021484375
 20
3457.0458984375
 30
0.0
 11
687.3974609374999
 21
3469.0671539307
 31
0.0
  0
LINE
  5
32E
330
1FF
100
AcDbEntity
  8
0
  6
Continuous
 62
     7
100
AcDbLine
 10
612.7636718749999
 20
3409.5208740234
 30
0.0
 11
624.3872070312
 21
3397.4977111816
 31
0.0
  0
LINE
  5
32F
330
1FF
100
AcDbEntity
  8
0
  6
Continuous
 62
     7
100
AcDbLine
 10
612.7607421875
 20
3409.510574340801
 30
0.0
 11
624.3847656249999
 21
3397.4889373779
 31
0.0
  0
LINE
  5
330
330
1FF
100
AcDbEntity
  8
0
  6
Continuous
 62
     7
100
AcDbLine
 10
634.8120117187
 20
3409.3377685547
 30
0.0
 11
627.03515625
 21
3417.3825836182
 31
0.0
  0
LINE
  5
331
330
1FF
100
AcDbEntity
  8
0
  6
Continuous
 62
     7
100
AcDbLine
 10
676.9702148438
 20
3457.2187042236
 30
0.0
 11
684.7470703125
 21
3449.173889160201
 31
0.0
  0
LINE
  5
332
330
1FF
100
AcDbEntity
  8
0
  6
Continuous
 62
     7
100
AcDbLine
 10
684.7485351563
 20
3449.180755615201
 30
0.0
 11
676.9711914063
 21
3457.2240447998
 31
0.0
  0
LINE
  5
333
330
1FF
100
AcDbEntity
  8
0
  6
Continuous
 62
     7
100
AcDbLine
 10
699.0185546874999
 20
3457.0355987549
 30
0.0
 11
687.3950195313
 21
3469.0587615967
 31
0.0
  0
LINE
  5
334
330
1FF
100
AcDbEntity
  8
0
  6
Continuous
 62
     7
100
AcDbLine
 10
702.5556640625
 20
3711.9821166992
 30
0.0
 11
698.2602539063
 21
3718.6864471436
 31
0.0
  0
LINE
  5
335
330
1FF
100
AcDbEntity
  8
0
  6
Continuous
 62
     7
100
AcDbLine
 10
1220.37109375
 20
1817.5751953125
 30
0.0
 11
1220.37109375
 21
3724.9971008301
 31
0.0
  0
LINE
  5
336
330
1FF
100
AcDbEntity
  8
0
  6
Continuous
 62
     7
100
AcDbLine
 10
1220.37109375
 20
4655.8251953125
 30
0.0
 11
1220.37109375
 21
4670.224487304699
 31
0.0
  0
LINE
  5
337
330
1FF
100
AcDbEntity
  8
0
  6
Continuous
 62
     7
100
AcDbLine
 10
1220.37109375
 20
5146.7702636719
 30
0.0
 11
1220.37109375
 21
6219.5246582031
 31
0.0
  0
LINE
  5
338
330
1FF
100
AcDbEntity
  8
0
  6
Continuous
 62
     7
100
AcDbLine
 10
1236.1206054688
 20
4670.233276367199
 30
0.0
 11
1236.1206054688
 21
5147.484008789099
 31
0.0
  0
LINE
  5
339
330
1FF
100
AcDbEntity
  8
0
  6
Continuous
 62
     7
100
AcDbLine
 10
1236.1225585938
 20
4648.4873046875
 30
0.0
 11
1236.1225585938
 21
4655.8251953125
 31
0.0
  0
LINE
  5
33A
330
1FF
100
AcDbEntity
  8
0
  6
Continuous
 62
     7
100
AcDbLine
 10
1236.1225585938
 20
4669.5848388672
 30
0.0
 11
1236.1181640625
 21
5147.484008789099
 31
0.0
  0
LINE
  5
33B
330
1FF
100
AcDbEntity
  8
0
  6
Continuous
 62
     7
100
AcDbLine
 10
1247.0083007813
 20
3724.9971008301
 30
0.0
 11
1247.0083007813
 21
3805.283508300801
 31
0.0
  0
LINE
  5
33C
330
1FF
100
AcDbEntity
  8
0
  6
Continuous
 62
     7
100
AcDbLine
 10
1249.2817382812
 20
4664.727172851599
 30
0.0
 11
1249.2817382812
 21
4718.567016601599
 31
0.0
  0
LINE
  5
33D
330
1FF
100
AcDbEntity
  8
0
  6
Continuous
 62
     7
100
AcDbLine
 10
1260.5263671875
 20
1817.5751953125
 30
0.0
 11
1260.5263671875
 21
3788.491973877
 31
0.0
  0
LINE
  5
33E
330
1FF
100
AcDbEntity
  8
0
  6
Continuous
 62
     7
100
AcDbLine
 10
1260.5263671875
 20
4655.8251953125
 30
0.0
 11
1260.5263671875
 21
4664.724487304699
 31
0.0
  0
LINE
  5
33F
330
1FF
100
AcDbEntity
  8
0
  6
Continuous
 62
     7
100
AcDbLine
 10
1260.5263671875
 20
4718.564331054699
 30
0.0
 11
1260.5263671875
 21
6219.5246582031
 31
0.0
  0
LINE
  5
340
330
1FF
100
AcDbEntity
  8
0
  6
Continuous
 62
     7
100
AcDbLine
 10
1271.1318359375
 20
4897.026245117199
 30
0.0
 11
1271.1318359375
 21
5005.931274414099
 31
0.0
  0
LINE
  5
341
330
1FF
100
AcDbEntity
  8
0
  6
Continuous
 62
     7
100
AcDbLine
 10
1276.9213867188
 20
2713.6578979492
 30
0.0
 11
1276.9213867188
 21
2811.466369628901
 31
0.0
  0
LINE
  5
342
330
1FF
100
AcDbEntity
  8
0
  6
Continuous
 62
     7
100
AcDbLine
 10
1303.3100585938
 20
5702.1394042969
 30
0.0
 11
1303.3100585938
 21
6046.6828613281
 31
0.0
  0
LINE
  5
343
330
1FF
100
AcDbEntity
  8
0
  6
Continuous
 62
     7
100
AcDbLine
 10
2739.2622070312
 20
8642.425537109399
 30
0.0
 11
2859.6645507813
 21
8911.745849609399
 31
0.0
  0
LINE
  5
344
330
1FF
100
AcDbEntity
  8
0
  6
Continuous
 62
     7
100
AcDbLine
 10
783.1103515625
 20
6224.4318847656
 30
0.0
 11
777.3852539062
 21
6219.4482421875
 31
0.0
  0
LINE
  5
345
330
1FF
100
AcDbEntity
  8
0
  6
Continuous
 62
     7
100
AcDbLine
 10
848.7431640625
 20
6197.104736328101
 30
0.0
 11
854.4682617188
 21
6202.0883789062
 31
0.0
  0
LINE
  5
346
330
1FF
100
AcDbEntity
  8
0
  6
Continuous
 62
     7
100
AcDbLine
 10
783.0351562499999
 20
6224.3859863281
 30
0.0
 11
778.5947265625
 21
6220.7841796875
 31
0.0
  0
LINE
  5
347
330
1FF
100
AcDbEntity
  8
0
  6
Continuous
 62
     7
100
AcDbLine
 10
848.7382812499999
 20
6197.0979003906
 30
0.0
 11
853.1806640624999
 21
6200.6723632813
 31
0.0
  0
LINE
  5
348
330
1FF
100
AcDbEntity
  8
0
  6
Continuous
 62
     7
100
AcDbLine
 10
10021.9809570313
 20
1238.3391113281
 30
0.0
 11
10290.3344726563
 21
1272.4028320312
 31
0.0
  0
LINE
  5
349
330
1FF
100
AcDbEntity
  8
0
  6
Continuous
 62
     7
100
AcDbLine
 10
708.0415039062
 20
14.9333496094
 30
0.0
 11
977.3618164063
 21
46.3713378906
 31
0.0
  0
LINE
  5
34A
330
1FF
100
AcDbEntity
  8
0
  6
Continuous
 62
     7
100
AcDbLine
 10
10021.0141601562
 20
46.3713378906
 30
0.0
 11
10290.3344726563
 21
14.9333496094
 31
0.0
  0
LINE
  5
34B
330
1FF
100
AcDbEntity
  8
0
  6
Continuous
 62
     7
100
AcDbLine
 10
10290.3344726563
 20
169.5031738281
 30
0.0
 11
10559.654296875
 21
135.4455566406
 31
0.0
  0
LINE
  5
34C
330
1FF
100
AcDbEntity
  8
0
  6
Continuous
 62
     7
100
AcDbLine
 10
2555.6623535156
 20
1272.4028320312
 30
0.0
 11
2686.1206054688
 21
1238.3391113281
 31
0.0
  0
LINE
  5
34D
330
1FF
100
AcDbEntity
  8
0
  6
Continuous
 62
     7
100
AcDbLine
 10
698.2602539063
 20
3718.6864471436
 30
0.0
 11
689.6049804688
 21
3726.8956756592
 31
0.0
  0
LINE
  5
34E
330
1FF
100
AcDbEntity
  8
0
  6
Continuous
 62
     7
100
AcDbLine
 10
3078.4106445312
 20
865.7585449219
 30
0.0
 11
2987.3063964844
 21
996.3391113281
 31
0.0
  0
LINE
  5
34F
330
1FF
100
AcDbEntity
  8
0
  6
Continuous
 62
     7
100
AcDbLine
 10
2692.306640625
 20
1228.1369628906
 30
0.0
 11
2687.1748046875
 21
1236.6000976562
 31
0.0
  0
LINE
  5
350
330
1FF
100
AcDbEntity
  8
0
  6
Continuous
 62
     7
100
AcDbLine
 10
2686.1206054688
 20
1238.3391113281
 30
0.0
 11
2675.1682128906
 21
1256.4013671875
 31
0.0
  0
LINE
  5
351
330
1FF
100
AcDbEntity
  8
0
  6
Continuous
 62
     7
100
AcDbLine
 10
2874.3791503906
 20
927.8645019530999
 30
0.0
 11
2866.4729003906
 21
940.9033203125
 31
0.0
  0
LINE
  5
352
330
1FF
100
AcDbEntity
  8
0
  6
Continuous
 62
     7
100
AcDbLine
 10
2686.1086425781
 20
1238.3586425781
 30
0.0
 11
2675.1682128906
 21
1256.4013671875
 31
0.0
  0
LINE
  5
353
330
1FF
100
AcDbEntity
  8
0
  6
Continuous
 62
     7
100
AcDbLine
 10
2874.3791503906
 20
927.8645019530999
 30
0.0
 11
2687.1748046875
 21
1236.6000976562
 31
0.0
  0
LINE
  5
354
330
1FF
100
AcDbEntity
  8
0
  6
Continuous
 62
     7
100
AcDbLine
 10
2686.0925292969
 20
1238.3852539062
 30
0.0
 11
2608.4309082031
 21
1366.4641113281
 31
0.0
  0
LINE
  5
355
330
1FF
100
AcDbEntity
  8
0
  6
Continuous
 62
     7
100
AcDbLine
 10
840.81640625
 20
6210.7683105469
 30
0.0
 11
840.0029296875
 21
6214.0275878906
 31
0.0
  0
LINE
  5
356
330
1FF
100
AcDbEntity
  8
0
  6
Continuous
 62
     7
100
AcDbLine
 10
857.90234375
 20
6210.7683105469
 30
0.0
 11
856.5307617188
 21
6216.2644042969
 31
0.0
  0
LINE
  5
357
330
1FF
100
AcDbEntity
  8
0
  6
Continuous
 62
     7
100
AcDbLine
 10
773.9516601563
 20
6210.7683105469
 30
0.0
 11
775.2993164063
 21
6205.265869140601
 31
0.0
  0
LINE
  5
358
330
1FF
100
AcDbEntity
  8
0
  6
Continuous
 62
     7
100
AcDbLine
 10
857.9018554688
 20
6210.7683105469
 30
0.0
 11
856.5546875
 21
6216.2705078125
 31
0.0
  0
LINE
  5
359
330
1FF
100
AcDbEntity
  8
0
  6
Continuous
 62
     7
100
AcDbLine
 10
791.8359375
 20
6207.505126953101
 30
0.0
 11
791.0415039063
 21
6210.7683105469
 31
0.0
  0
LINE
  5
35A
330
1FF
100
AcDbEntity
  8
0
  6
Continuous
 62
     7
100
AcDbLine
 10
840.017578125
 20
6214.0322265625
 30
0.0
 11
840.8120117186999
 21
6210.7683105469
 31
0.0
  0
LINE
  5
35B
330
1FF
100
AcDbEntity
  8
0
  6
Continuous
 62
     7
100
AcDbLine
 10
1813.5988769531
 20
3718.983993530301
 30
0.0
 11
1813.5988769531
 21
3777.9779052734
 31
0.0
  0
LINE
  5
35C
330
1FF
100
AcDbEntity
  8
0
  6
Continuous
 62
     7
100
AcDbLine
 10
1813.5988769531
 20
4664.727172851599
 30
0.0
 11
1813.5988769531
 21
4718.567016601599
 31
0.0
  0
LINE
  5
35D
330
1FF
100
AcDbEntity
  8
0
  6
Continuous
 62
     7
100
AcDbLine
 10
2687.1828613281
 20
9181.093994140601
 30
0.0
 11
2692.306640625
 21
9199.083251953101
 31
0.0
  0
LINE
  5
35E
330
1FF
100
AcDbEntity
  8
0
  6
Continuous
 62
     7
100
AcDbLine
 10
2872.8876953125
 20
8624.408935546899
 30
0.0
 11
2878.0266113281
 21
8642.450439453101
 31
0.0
  0
LINE
  5
35F
330
1FF
100
AcDbEntity
  8
0
  6
Continuous
 62
     7
100
AcDbLine
 10
2984.7590332031
 20
8642.425537109399
 30
0.0
 11
3083.8869628906
 21
8911.745849609399
 31
0.0
  0
LINE
  5
360
330
1FF
100
AcDbEntity
  8
0
  6
Continuous
 62
     7
100
AcDbLine
 10
612.7607421875
 20
3457.0458984375
 30
0.0
 11
607.3784179688
 21
3445.6918334961
 31
0.0
  0
LINE
  5
361
330
1FF
100
AcDbEntity
  8
0
  6
Continuous
 62
     7
100
AcDbLine
 10
627.0332031249999
 20
3449.180755615201
 30
0.0
 11
623.4321289061999
 21
3441.584167480499
 31
0.0
  0
LINE
  5
362
330
1FF
100
AcDbEntity
  8
0
  6
Continuous
 62
     7
100
AcDbLine
 10
684.7485351563
 20
3417.3757171631
 30
0.0
 11
688.3500976562999
 21
3424.9723052979
 31
0.0
  0
LINE
  5
363
330
1FF
100
AcDbEntity
  8
0
  6
Continuous
 62
     7
100
AcDbLine
 10
699.021484375
 20
3409.510574340801
 30
0.0
 11
704.4038085938
 21
3420.8646392822
 31
0.0
  0
LINE
  5
364
330
1FF
100
AcDbEntity
  8
0
  6
Continuous
 62
     7
100
AcDbLine
 10
612.7636718749999
 20
3457.0355987549
 30
0.0
 11
607.3476562499999
 21
3445.6971740723
 31
0.0
  0
LINE
  5
365
330
1FF
100
AcDbEntity
  8
0
  6
Continuous
 62
     7
100
AcDbLine
 10
623.4116210936999
 20
3441.587600708
 30
0.0
 11
627.03515625
 21
3449.173889160201
 31
0.0
  0
LINE
  5
366
330
1FF
100
AcDbEntity
  8
0
  6
Continuous
 62
     7
100
AcDbLine
 10
688.3706054688
 20
3424.968872070301
 30
0.0
 11
684.7465820312
 21
3417.3825836182
 31
0.0
  0
LINE
  5
367
330
1FF
100
AcDbEntity
  8
0
  6
Continuous
 62
     7
100
AcDbLine
 10
699.0185546874999
 20
3409.5208740234
 30
0.0
 11
704.4345703124999
 21
3420.8589172363
 31
0.0
  0
LINE
  5
368
330
1FF
100
AcDbEntity
  8
0
  6
Continuous
 62
     7
100
AcDbLine
 10
609.2265625
 20
3711.9821166992
 30
0.0
 11
613.5219726563
 21
3718.6864471436
 31
0.0
  0
LINE
  5
369
330
1FF
100
AcDbEntity
  8
0
  6
Continuous
 62
     7
100
AcDbLine
 10
438.7216796875
 20
2708.893737793
 30
0.0
 11
708.0415039062
 21
2602.4877319336
 31
0.0
  0
LINE
  5
36A
330
1FF
100
AcDbEntity
  8
0
  6
Continuous
 62
     7
100
AcDbLine
 10
624.3847656249999
 20
3397.4889373779
 30
0.0
 11
634.103515625
 21
3391.9557189941
 31
0.0
  0
LINE
  5
36B
330
1FF
100
AcDbEntity
  8
0
  6
Continuous
 62
     7
100
AcDbLine
 10
634.8110351563
 20
3409.3324279785
 30
0.0
 11
641.3134765625
 21
3405.6298828125
 31
0.0
  0
LINE
  5
36C
330
1FF
100
AcDbEntity
  8
0
  6
Continuous
 62
     7
100
AcDbLine
 10
676.9711914063
 20
3457.2240447998
 30
0.0
 11
670.46875
 21
3460.9262084961
 31
0.0
  0
LINE
  5
36D
330
1FF
100
AcDbEntity
  8
0
  6
Continuous
 62
     7
100
AcDbLine
 10
687.3974609374999
 20
3469.0671539307
 30
0.0
 11
677.6787109375
 21
3474.6007537842
 31
0.0
  0
LINE
  5
36E
330
1FF
100
AcDbEntity
  8
0
  6
Continuous
 62
     7
100
AcDbLine
 10
641.3120117188
 20
3405.6268310547
 30
0.0
 11
634.8120117187
 21
3409.3377685547
 31
0.0
  0
LINE
  5
36F
330
1FF
100
AcDbEntity
  8
0
  6
Continuous
 62
     7
100
AcDbLine
 10
670.4702148438
 20
3460.929260253901
 30
0.0
 11
676.9702148438
 21
3457.2187042236
 31
0.0
  0
LINE
  5
370
330
1FF
100
AcDbEntity
  8
0
  6
Continuous
 62
     7
100
AcDbLine
 10
624.3872070312
 20
3397.4977111816
 30
0.0
 11
634.1015624999999
 21
3391.9511413574
 31
0.0
  0
LINE
  5
371
330
1FF
100
AcDbEntity
  8
0
  6
Continuous
 62
     7
100
AcDbLine
 10
687.3950195313
 20
3469.0587615967
 30
0.0
 11
677.6806640624999
 21
3474.6053314209
 31
0.0
  0
LINE
  5
372
330
1FF
100
AcDbEntity
  8
0
  6
Continuous
 62
     7
100
AcDbLine
 10
790.6801757811999
 20
6228.2746582031
 30
0.0
 11
783.0351562499999
 21
6224.3859863281
 31
0.0
  0
LINE
  5
373
330
1FF
100
AcDbEntity
  8
0
  6
Continuous
 62
     7
100
AcDbLine
 10
793.4306640625
 20
6229.2619628906
 30
0.0
 11
783.1103515625
 21
6224.4318847656
 31
0.0
  0
LINE
  5
374
330
1FF
100
AcDbEntity
  8
0
  6
Continuous
 62
     7
100
AcDbLine
 10
829.2641601561999
 20
6199.798828125
 30
0.0
 11
835.3823242186999
 21
6202.6628417969
 31
0.0
  0
LINE
  5
375
330
1FF
100
AcDbEntity
  8
0
  6
Continuous
 62
     7
100
AcDbLine
 10
838.419921875
 20
6192.2685546875
 30
0.0
 11
848.7382812499999
 21
6197.0979003906
 31
0.0
  0
LINE
  5
376
330
1FF
100
AcDbEntity
  8
0
  6
Continuous
 62
     7
100
AcDbLine
 10
838.4228515625
 20
6192.2746582031
 30
0.0
 11
848.7431640625
 21
6197.104736328101
 31
0.0
  0
LINE
  5
377
330
1FF
100
AcDbEntity
  8
0
  6
Continuous
 62
     7
100
AcDbLine
 10
796.46875
 20
6218.8698730469
 30
0.0
 11
802.5893554688
 21
6221.7331542969
 31
0.0
  0
LINE
  5
378
330
1FF
100
AcDbEntity
  8
0
  6
Continuous
 62
     7
100
AcDbLine
 10
835.3842773438
 20
6202.666748046899
 30
0.0
 11
829.2641601561999
 21
6199.803955078101
 31
0.0
  0
LINE
  5
379
330
1FF
100
AcDbEntity
  8
0
  6
Continuous
 62
     7
100
AcDbLine
 10
689.6049804688
 20
3726.8956756592
 30
0.0
 11
679.1967773438
 21
3732.741317749
 31
0.0
  0
LINE
  5
395
330
1FF
100
AcDbEntity
  8
0
  6
Continuous
 62
     7
100
AcDbLine
 10
775.2993164063
 20
6205.265869140601
 30
0.0
 11
777.3852539062
 21
6202.0883789062
 31
0.0
  0
LINE
  5
396
330
1FF
100
AcDbEntity
  8
0
  6
Continuous
 62
     7
100
AcDbLine
 10
791.0600585936999
 20
6210.2250976562
 30
0.0
 11
794.138671875
 21
6204.485595703101
 31
0.0
  0
LINE
  5
397
330
1FF
100
AcDbEntity
  8
0
  6
Continuous
 62
     7
100
AcDbLine
 10
3992.5661621094
 20
7154.3449707031
 30
0.0
 11
4133.320068359401
 21
7246.0817871094
 31
0.0
  0
LINE
  5
398
330
1FF
100
AcDbEntity
  8
0
  6
Continuous
 62
     7
100
AcDbLine
 10
798.8876953125
 20
6230.7885742188
 30
0.0
 11
790.6801757811999
 21
6228.2746582031
 31
0.0
  0
LINE
  5
399
330
1FF
100
AcDbEntity
  8
0
  6
Continuous
 62
     7
100
AcDbLine
 10
4562.596801757801
 20
1817.8483886719
 30
0.0
 11
4886.8120727539
 21
1859.8898925781
 31
0.0
  0
LINE
  5
39A
330
1FF
100
AcDbEntity
  8
0
  6
Continuous
 62
     7
100
AcDbLine
 10
4535.0964355469
 20
1829.2481689453
 30
0.0
 11
4861.4172363281
 21
1871.5628662109
 31
0.0
  0
LINE
  5
39B
330
1FF
100
AcDbEntity
  8
0
  6
Continuous
 62
     7
100
AcDbLine
 10
1220.37109375
 20
1817.5751953125
 30
0.0
 11
1260.5263671875
 21
1817.5751953125
 31
0.0
  0
LINE
  5
39C
330
1FF
100
AcDbEntity
  8
0
  6
Continuous
 62
     7
100
AcDbLine
 10
9737.849609375
 20
1817.5751953125
 30
0.0
 11
9778.004882812501
 21
1817.5751953125
 31
0.0
  0
LINE
  5
39D
330
1FF
100
AcDbEntity
  8
0
  6
Continuous
 62
     7
100
AcDbLine
 10
93.478515625
 20
1829.2481689453
 30
0.0
 11
139.208984375
 21
1829.2481689453
 31
0.0
  0
LINE
  5
39E
330
1FF
100
AcDbEntity
  8
0
  6
Continuous
 62
     7
100
AcDbLine
 10
10859.1669921875
 20
1829.2481689453
 30
0.0
 11
10904.8974609375
 21
1829.2481689453
 31
0.0
  0
LINE
  5
39F
330
1FF
100
AcDbEntity
  8
0
  6
Continuous
 62
     7
100
AcDbLine
 10
1220.37109375
 20
1859.8898925781
 30
0.0
 11
1260.5263671875
 21
1859.8898925781
 31
0.0
  0
LINE
  5
3A0
330
1FF
100
AcDbEntity
  8
0
  6
Continuous
 62
     7
100
AcDbLine
 10
93.478515625
 20
1871.5628662109
 30
0.0
 11
139.208984375
 21
1871.5628662109
 31
0.0
  0
LINE
  5
3A1
330
1FF
100
AcDbEntity
  8
0
  6
Continuous
 62
     7
100
AcDbLine
 10
10290.3344726563
 20
1272.4028320312
 30
0.0
 11
10559.7006835938
 21
1238.3391113281
 31
0.0
  0
LINE
  5
3A2
330
1FF
100
AcDbEntity
  8
0
  6
Continuous
 62
     7
100
AcDbLine
 10
634.103515625
 20
3391.9557189941
 30
0.0
 11
641.1362304688
 21
3389.4536590576
 31
0.0
  0
LINE
  5
3A3
330
1FF
100
AcDbEntity
  8
0
  6
Continuous
 62
     7
100
AcDbLine
 10
677.6787109375
 20
3474.6007537842
 30
0.0
 11
670.6459960936999
 21
3477.1028137207
 31
0.0
  0
LINE
  5
3A4
330
1FF
100
AcDbEntity
  8
0
  6
Continuous
 62
     7
100
AcDbLine
 10
634.1015624999999
 20
3391.9511413574
 30
0.0
 11
641.130859375
 21
3389.4364929199
 31
0.0
  0
LINE
  5
3A5
330
1FF
100
AcDbEntity
  8
0
  6
Continuous
 62
     7
100
AcDbLine
 10
677.6806640624999
 20
3474.6053314209
 30
0.0
 11
670.6508789062
 21
3477.1199798584
 31
0.0
  0
LINE
  5
3A6
330
1FF
100
AcDbEntity
  8
0
  6
Continuous
 62
     7
100
AcDbLine
 10
388.916015625
 20
3936.6025390625
 30
0.0
 11
656.9584960938
 21
3807.559753418
 31
0.0
  0
LINE
  5
3A7
330
1FF
100
AcDbEntity
  8
0
  6
Continuous
 62
     7
100
AcDbLine
 10
856.5307617188
 20
6216.2644042969
 30
0.0
 11
853.1806640624999
 21
6220.8642578125
 31
0.0
  0
LINE
  5
3A8
330
1FF
100
AcDbEntity
  8
0
  6
Continuous
 62
     7
100
AcDbLine
 10
856.5546875
 20
6216.2705078125
 30
0.0
 11
854.4682617188
 21
6219.4482421875
 31
0.0
  0
LINE
  5
3A9
330
1FF
100
AcDbEntity
  8
0
  6
Continuous
 62
     7
100
AcDbLine
 10
624.38671875
 20
3469.059143066401
 30
0.0
 11
612.7636718749999
 21
3457.0355987549
 31
0.0
  0
LINE
  5
3AA
330
1FF
100
AcDbEntity
  8
0
  6
Continuous
 62
     7
100
AcDbLine
 10
684.7465820312
 20
3417.3825836182
 30
0.0
 11
676.9697265625
 21
3409.3381500244
 31
0.0
  0
LINE
  5
3AB
330
1FF
100
AcDbEntity
  8
0
  6
Continuous
 62
     7
100
AcDbLine
 10
687.3955078125
 20
3397.4973297119
 30
0.0
 11
699.0185546874999
 21
3409.5208740234
 31
0.0
  0
LINE
  5
3AC
330
1FF
100
AcDbEntity
  8
0
  6
Continuous
 62
     7
100
AcDbLine
 10
624.3847656249999
 20
3469.0671539307
 30
0.0
 11
612.7607421875
 21
3457.0458984375
 31
0.0
  0
LINE
  5
3AD
330
1FF
100
AcDbEntity
  8
0
  6
Continuous
 62
     7
100
AcDbLine
 10
627.03515625
 20
3449.173889160201
 30
0.0
 11
634.8125
 21
3457.218322753901
 31
0.0
  0
LINE
  5
3AE
330
1FF
100
AcDbEntity
  8
0
  6
Continuous
 62
     7
100
AcDbLine
 10
634.8110351563
 20
3457.2240447998
 30
0.0
 11
627.0332031249999
 21
3449.180755615201
 31
0.0
  0
LINE
  5
3AF
330
1FF
100
AcDbEntity
  8
0
  6
Continuous
 62
     7
100
AcDbLine
 10
676.9711914063
 20
3409.3324279785
 30
0.0
 11
684.7485351563
 21
3417.3757171631
 31
0.0
  0
LINE
  5
3B0
330
1FF
100
AcDbEntity
  8
0
  6
Continuous
 62
     7
100
AcDbLine
 10
687.3974609374999
 20
3397.4889373779
 30
0.0
 11
699.021484375
 21
3409.510574340801
 31
0.0
  0
LINE
  5
3B1
330
1FF
100
AcDbEntity
  8
0
  6
Continuous
 62
     7
100
AcDbLine
 10
613.5219726563
 20
3718.6864471436
 30
0.0
 11
622.1772460938
 21
3726.8956756592
 31
0.0
  0
LINE
  5
3B2
330
1FF
100
AcDbEntity
  8
0
  6
Continuous
 62
     7
100
AcDbLine
 10
8047.2158203125
 20
8916.989501953102
 30
0.0
 11
8039.510986328101
 21
8913.461669921899
 31
0.0
  0
LINE
  5
3B3
330
1FF
100
AcDbEntity
  8
0
  6
Continuous
 62
     7
100
AcDbLine
 10
8047.153320312501
 20
8916.905517578101
 30
0.0
 11
8039.404296875
 21
8913.464111328101
 31
0.0
  0
LINE
  5
3B4
330
1FF
100
AcDbEntity
  8
0
  6
Continuous
 62
     7
100
AcDbLine
 10
598.1791992188
 20
2141.0100097656
 30
0.0
 11
881.6528320313
 21
2141.0100097656
 31
0.0
  0
LINE
  5
3B5
330
1FF
100
AcDbEntity
  8
0
  6
Continuous
 62
     7
100
AcDbLine
 10
5223.6540527344
 20
2141.0100097656
 30
0.0
 11
5506.992980957
 21
2141.0100097656
 31
0.0
  0
LINE
  5
3B6
330
1FF
100
AcDbEntity
  8
0
  6
Continuous
 62
     7
100
AcDbLine
 10
708.0415039062
 20
2426.363159179701
 30
0.0
 11
881.6528320313
 21
2426.363159179701
 31
0.0
  0
LINE
  5
3B7
330
1FF
100
AcDbEntity
  8
0
  6
Continuous
 62
     7
100
AcDbLine
 10
655.8911132813
 20
3402.6124572754
 30
0.0
 11
641.3120117188
 21
3405.6268310547
 31
0.0
  0
LINE
  5
3B8
330
1FF
100
AcDbEntity
  8
0
  6
Continuous
 62
     7
100
AcDbLine
 10
641.3134765625
 20
3405.6298828125
 30
0.0
 11
655.8911132813
 21
3402.6124572754
 31
0.0
  0
LINE
  5
3B9
330
1FF
100
AcDbEntity
  8
0
  6
Continuous
 62
     7
100
AcDbLine
 10
679.1967773438
 20
3732.741317749
 30
0.0
 11
671.6586914061999
 21
3735.3273010254
 31
0.0
  0
LINE
  5
3BA
330
1FF
100
AcDbEntity
  8
0
  6
Continuous
 62
     7
100
AcDbLine
 10
835.384765625
 20
6218.8698730469
 30
0.0
 11
840.017578125
 21
6214.0322265625
 31
0.0
  0
LINE
  5
3BB
330
1FF
100
AcDbEntity
  8
0
  6
Continuous
 62
     7
100
AcDbLine
 10
796.46875
 20
6202.666748046899
 30
0.0
 11
791.8359375
 21
6207.505126953101
 31
0.0
  0
LINE
  5
3BC
330
1FF
100
AcDbEntity
  8
0
  6
Continuous
 62
     7
100
AcDbLine
 10
840.0029296875
 20
6214.0275878906
 30
0.0
 11
835.3823242186999
 21
6218.8745117188
 31
0.0
  0
LINE
  5
3BD
330
1FF
100
AcDbEntity
  8
0
  6
Continuous
 62
     7
100
AcDbLine
 10
4585.7009277344
 20
1779.7156982422
 30
0.0
 11
4554.149536132801
 21
1831.7496337891
 31
0.0
  0
LINE
  5
3BE
330
1FF
100
AcDbEntity
  8
0
  6
Continuous
 62
     7
100
AcDbLine
 10
4495.4102783203
 20
1928.6221923828
 30
0.0
 11
4321.243774414099
 21
2215.8557128906
 31
0.0
  0
LINE
  5
3BF
330
1FF
100
AcDbEntity
  8
0
  6
Continuous
 62
     7
100
AcDbLine
 10
4304.10546875
 20
2244.1201171875
 30
0.0
 11
4237.368041992199
 21
2354.1829833984
 31
0.0
  0
LINE
  5
3C0
330
1FF
100
AcDbEntity
  8
0
  6
Continuous
 62
     7
100
AcDbLine
 10
4536.138549804699
 20
1861.4532470703
 30
0.0
 11
4495.4102783203
 21
1928.6221923828
 31
0.0
  0
LINE
  5
3C1
330
1FF
100
AcDbEntity
  8
0
  6
Continuous
 62
     7
100
AcDbLine
 10
4321.243774414099
 20
2215.8557128906
 30
0.0
 11
4316.112060546901
 21
2224.3190917969
 31
0.0
  0
LINE
  5
3C2
330
1FF
100
AcDbEntity
  8
0
  6
Continuous
 62
     7
100
AcDbLine
 10
2267.6867675781
 20
169.5031738281
 30
0.0
 11
2555.6623535156
 21
1272.4028320312
 31
0.0
  0
LINE
  5
3C3
330
1FF
100
AcDbEntity
  8
0
  6
Continuous
 62
     7
100
AcDbLine
 10
4501.8250732422
 20
8624.408935546899
 30
0.0
 11
4585.7009277344
 21
8918.888916015601
 31
0.0
  0
LINE
  5
3C4
330
1FF
100
AcDbEntity
  8
0
  6
Continuous
 62
     7
100
AcDbLine
 10
5512.4767608643
 20
7797.555419921899
 30
0.0
 11
5512.943420410199
 21
7798.0222167969
 31
0.0
  0
LINE
  5
3C5
330
1FF
100
AcDbEntity
  8
0
  6
Continuous
 62
     7
100
AcDbLine
 10
5510.6100921631
 20
7794.0554199219
 30
0.0
 11
5511.076751709
 21
7794.522216796899
 31
0.0
  0
LINE
  5
3C6
330
1FF
100
AcDbEntity
  8
0
  6
Continuous
 62
     7
100
AcDbLine
 10
5512.4767608643
 20
7795.6887207031
 30
0.0
 11
5512.943420410199
 21
7796.1555175781
 31
0.0
  0
LINE
  5
3C7
330
1FF
100
AcDbEntity
  8
0
  6
Continuous
 62
     7
100
AcDbLine
 10
5514.4234161377
 20
7797.322021484399
 30
0.0
 11
5514.8900909424
 21
7797.7888183594
 31
0.0
  0
LINE
  5
3C8
330
1FF
100
AcDbEntity
  8
0
  6
Continuous
 62
     7
100
AcDbLine
 10
5516.2900848389
 20
7796.1555175781
 30
0.0
 11
5515.823425293
 21
7795.6887207031
 31
0.0
  0
LINE
  5
3C9
330
1FF
100
AcDbEntity
  8
0
  6
Continuous
 62
     7
100
AcDbLine
 10
5512.4767608643
 20
7791.255615234399
 30
0.0
 11
5512.943420410199
 21
7791.722412109399
 31
0.0
  0
LINE
  5
3CA
330
1FF
100
AcDbEntity
  8
0
  6
Continuous
 62
     7
100
AcDbLine
 10
5514.4234161377
 20
7792.8889160156
 30
0.0
 11
5514.8900909424
 21
7793.3557128906
 31
0.0
  0
LINE
  5
3CB
330
1FF
100
AcDbEntity
  8
0
  6
Continuous
 62
     7
100
AcDbLine
 10
5516.2900848389
 20
7791.722412109399
 30
0.0
 11
5515.823425293
 21
7791.255615234399
 31
0.0
  0
LINE
  5
3CC
330
1FF
100
AcDbEntity
  8
0
  6
Continuous
 62
     7
100
AcDbLine
 10
5525.1634216309
 20
7797.322021484399
 30
0.0
 11
5525.6300811768
 21
7797.7888183594
 31
0.0
  0
LINE
  5
3CD
330
1FF
100
AcDbEntity
  8
0
  6
Continuous
 62
     7
100
AcDbLine
 10
5519.636749267601
 20
7791.722412109399
 30
0.0
 11
5519.170089721701
 21
7791.255615234399
 31
0.0
  0
LINE
  5
3CE
330
1FF
100
AcDbEntity
  8
0
  6
Continuous
 62
     7
100
AcDbLine
 10
5527.030090331999
 20
7796.1555175781
 30
0.0
 11
5526.5634155273
 21
7795.6887207031
 31
0.0
  0
LINE
  5
3CF
330
1FF
100
AcDbEntity
  8
0
  6
Continuous
 62
     7
100
AcDbLine
 10
5528.276748657199
 20
7797.322021484399
 30
0.0
 11
5528.7434234619
 21
7797.7888183594
 31
0.0
  0
LINE
  5
3D0
330
1FF
100
AcDbEntity
  8
0
  6
Continuous
 62
     7
100
AcDbLine
 10
5525.1634216309
 20
7792.8889160156
 30
0.0
 11
5525.6300811768
 21
7793.3557128906
 31
0.0
  0
LINE
  5
3D1
330
1FF
100
AcDbEntity
  8
0
  6
Continuous
 62
     7
100
AcDbLine
 10
5529.6767578125
 20
7797.322021484399
 30
0.0
 11
5530.143417358399
 21
7797.7888183594
 31
0.0
  0
LINE
  5
3D2
330
1FF
100
AcDbEntity
  8
0
  6
Continuous
 62
     7
100
AcDbLine
 10
5527.030090331999
 20
7792.4221191406
 30
0.0
 11
5526.796752929699
 21
7792.188720703101
 31
0.0
  0
LINE
  5
3D3
330
1FF
100
AcDbEntity
  8
0
  6
Continuous
 62
     7
100
AcDbLine
 10
5543.0634231567
 20
7797.322021484399
 30
0.0
 11
5543.530090332
 21
7797.7888183594
 31
0.0
  0
LINE
  5
3D4
330
1FF
100
AcDbEntity
  8
0
  6
Continuous
 62
     7
100
AcDbLine
 10
5538.983421325699
 20
7792.8889160156
 30
0.0
 11
5539.450088501
 21
7793.3557128906
 31
0.0
  0
LINE
  5
3D5
330
1FF
100
AcDbEntity
  8
0
  6
Continuous
 62
     7
100
AcDbLine
 10
5544.9300918579
 20
7796.855224609399
 30
0.0
 11
5544.696762085
 21
7796.621826171899
 31
0.0
  0
LINE
  5
3D6
330
1FF
100
AcDbEntity
  8
0
  6
Continuous
 62
     7
100
AcDbLine
 10
5543.030090331999
 20
7794.522216796899
 30
0.0
 11
5542.5634231567
 21
7794.0554199219
 31
0.0
  0
LINE
  5
3D7
330
1FF
100
AcDbEntity
  8
0
  6
Continuous
 62
     7
100
AcDbLine
 10
5540.850090026899
 20
7791.722412109399
 30
0.0
 11
5540.383422851601
 21
7791.255615234399
 31
0.0
  0
LINE
  5
3D8
330
1FF
100
AcDbEntity
  8
0
  6
Continuous
 62
     7
100
AcDbLine
 10
5543.9634246826
 20
7791.255615234399
 30
0.0
 11
5544.430091857901
 21
7791.722412109399
 31
0.0
  0
LINE
  5
3D9
330
1FF
100
AcDbEntity
  8
0
  6
Continuous
 62
     7
100
AcDbLine
 10
5548.510093689
 20
7795.6887207031
 30
0.0
 11
5548.976760864301
 21
7796.1555175781
 31
0.0
  0
LINE
  5
3DA
330
1FF
100
AcDbEntity
  8
0
  6
Continuous
 62
     7
100
AcDbLine
 10
5546.6434249878
 20
7795.6887207031
 30
0.0
 11
5547.5767593384
 21
7796.621826171899
 31
0.0
  0
LINE
  5
3DB
330
1FF
100
AcDbEntity
  8
0
  6
Continuous
 62
     7
100
AcDbLine
 10
5549.7234268188
 20
7793.5891113281
 30
0.0
 11
5550.656761169399
 21
7794.522216796899
 31
0.0
  0
LINE
  5
3DC
330
1FF
100
AcDbEntity
  8
0
  6
Continuous
 62
     7
100
AcDbLine
 10
5517.7700805664
 20
7791.955810546899
 30
0.0
 11
5518.2367553711
 21
7792.4221191406
 31
0.0
  0
LINE
  5
3DD
330
1FF
100
AcDbEntity
  8
0
  6
Continuous
 62
     7
100
AcDbLine
 10
5540.323425293
 20
7798.9553222656
 30
0.0
 11
5540.4167556763
 21
7799.0485839844
 31
0.0
  0
LINE
  5
3DE
330
1FF
100
AcDbEntity
  8
0
  6
Continuous
 62
     7
100
AcDbLine
 10
5540.510086059599
 20
7798.9553222656
 30
0.0
 11
5540.4167556763
 21
7798.862060546899
 31
0.0
  0
LINE
  5
3DF
330
1FF
100
AcDbEntity
  8
0
  6
Continuous
 62
     7
100
AcDbLine
 10
388.916015625
 20
4437.6187744141
 30
0.0
 11
778.2744140624999
 21
4670.233276367199
 31
0.0
  0
LINE
  5
3E0
330
1FF
100
AcDbEntity
  8
0
  6
Continuous
 62
     7
100
AcDbLine
 10
388.916015625
 20
4436.513671875
 30
0.0
 11
778.2744140624999
 21
4669.1281738281
 31
0.0
  0
LINE
  5
3E1
330
1FF
100
AcDbEntity
  8
0
  6
Continuous
 62
     7
100
AcDbLine
 10
388.916015625
 20
4415.9066772461
 30
0.0
 11
778.2744140624999
 21
4648.4873046875
 31
0.0
  0
LINE
  5
3E2
330
1FF
100
AcDbEntity
  8
0
  6
Continuous
 62
     7
100
AcDbLine
 10
5923.9912719727
 20
2846.133972168
 30
0.0
 11
5932.914245605501
 21
2846.2091064453
 31
0.0
  0
LINE
  5
3E3
330
1FF
100
AcDbEntity
  8
0
  6
Continuous
 62
     7
100
AcDbLine
 10
1220.37109375
 20
2687.7942504883
 30
0.0
 11
1260.5263671875
 21
2687.7942504883
 31
0.0
  0
LINE
  5
3E4
330
1FF
100
AcDbEntity
  8
0
  6
Continuous
 62
     7
100
AcDbLine
 10
93.478515625
 20
2699.4668579102
 30
0.0
 11
139.208984375
 21
2699.4668579102
 31
0.0
  0
LINE
  5
3E5
330
1FF
100
AcDbEntity
  8
0
  6
Continuous
 62
     7
100
AcDbLine
 10
83.12158203119999
 20
2713.6578979492
 30
0.0
 11
93.478515625
 21
2713.6578979492
 31
0.0
  0
LINE
  5
3E6
330
1FF
100
AcDbEntity
  8
0
  6
Continuous
 62
     7
100
AcDbLine
 10
139.208984375
 20
2713.6578979492
 30
0.0
 11
438.7216796875
 21
2713.6578979492
 31
0.0
  0
LINE
  5
3E7
330
1FF
100
AcDbEntity
  8
0
  6
Continuous
 62
     7
100
AcDbLine
 10
977.3642578125
 20
2713.6578979492
 30
0.0
 11
1220.37109375
 21
2713.6578979492
 31
0.0
  0
LINE
  5
3E8
330
1FF
100
AcDbEntity
  8
0
  6
Continuous
 62
     7
100
AcDbLine
 10
1260.5561523438
 20
2713.6578979492
 30
0.0
 11
1276.9213867188
 21
2713.6578979492
 31
0.0
  0
LINE
  5
3E9
330
1FF
100
AcDbEntity
  8
0
  6
Continuous
 62
     7
100
AcDbLine
 10
9721.454589843801
 20
2713.6578979492
 30
0.0
 11
9737.849609375
 21
2713.6578979492
 31
0.0
  0
LINE
  5
3EA
330
1FF
100
AcDbEntity
  8
0
  6
Continuous
 62
     7
100
AcDbLine
 10
9778.004882812501
 20
2713.6578979492
 30
0.0
 11
10021.556640625
 21
2713.6578979492
 31
0.0
  0
LINE
  5
3EB
330
1FF
100
AcDbEntity
  8
0
  6
Continuous
 62
     7
100
AcDbLine
 10
10559.654296875
 20
2713.6578979492
 30
0.0
 11
10859.1669921875
 21
2713.6578979492
 31
0.0
  0
LINE
  5
3EC
330
1FF
100
AcDbEntity
  8
0
  6
Continuous
 62
     7
100
AcDbLine
 10
10904.8974609375
 20
2713.6578979492
 30
0.0
 11
10915.2543945312
 21
2713.6578979492
 31
0.0
  0
LINE
  5
3ED
330
1FF
100
AcDbEntity
  8
DEFAULT_1
  6
CENTER
 62
     7
100
AcDbLine
 10
5610.8034820557
 20
2762.5619506836
 30
0.0
 11
5483.6523742676
 21
2762.5619506836
 31
0.0
  0
LINE
  5
3EE
330
1FF
100
AcDbEntity
  8
DEFAULT_1
  6
CENTER
 62
     7
100
AcDbLine
 10
1278.5610351562
 20
2762.5619506836
 30
0.0
 11
1276.9213867188
 21
2762.5619506836
 31
0.0
  0
LINE
  5
3EF
330
1FF
100
AcDbEntity
  8
DEFAULT_1
  6
CENTER
 62
     7
100
AcDbLine
 10
1260.5522460938
 20
2762.5619506836
 30
0.0
 11
1258.8881835938
 21
2762.5619506836
 31
0.0
  0
LINE
  5
3F0
330
1FF
100
AcDbEntity
  8
DEFAULT_1
  6
CENTER
 62
     7
100
AcDbLine
 10
1244.73046875
 20
2762.5619506836
 30
0.0
 11
1220.37109375
 21
2762.5619506836
 31
0.0
  0
LINE
  5
3F1
330
1FF
100
AcDbEntity
  8
DEFAULT_1
  6
CENTER
 62
     7
100
AcDbLine
 10
976.9584960936999
 20
2762.5619506836
 30
0.0
 11
952.4150390624999
 21
2762.5619506836
 31
0.0
  0
LINE
  5
3F2
330
1FF
100
AcDbEntity
  8
DEFAULT_1
  6
CENTER
 62
     7
100
AcDbLine
 10
468.6752929687999
 20
2762.5619506836
 30
0.0
 11
438.7216796875
 21
2762.5619506836
 31
0.0
  0
LINE
  5
3F3
330
1FF
100
AcDbEntity
  8
DEFAULT_1
  6
CENTER
 62
     7
100
AcDbLine
 10
139.208984375
 20
2762.5619506836
 30
0.0
 11
109.2299804687
 21
2762.5619506836
 31
0.0
  0
LINE
  5
3F4
330
1FF
100
AcDbEntity
  8
DEFAULT_1
  6
CENTER
 62
     7
100
AcDbLine
 10
94.51708984379999
 20
2762.5619506836
 30
0.0
 11
93.478515625
 21
2762.5619506836
 31
0.0
  0
LINE
  5
3F5
330
1FF
100
AcDbEntity
  8
DEFAULT_1
  6
CENTER
 62
     7
100
AcDbLine
 10
83.12158203119999
 20
2762.5619506836
 30
0.0
 11
82.05810546869999
 21
2762.5619506836
 31
0.0
  0
LINE
  5
3F6
330
1FF
100
AcDbEntity
  8
0
  6
Continuous
 62
     7
100
AcDbLine
 10
83.12158203119999
 20
2762.5619506836
 30
0.0
 11
93.478515625
 21
2762.5619506836
 31
0.0
  0
LINE
  5
3F7
330
1FF
100
AcDbEntity
  8
0
  6
Continuous
 62
     7
100
AcDbLine
 10
139.208984375
 20
2762.5619506836
 30
0.0
 11
438.7216796875
 21
2762.5619506836
 31
0.0
  0
LINE
  5
3F8
330
1FF
100
AcDbEntity
  8
0
  6
Continuous
 62
     7
100
AcDbLine
 10
976.9584960936999
 20
2762.5619506836
 30
0.0
 11
1220.37109375
 21
2762.5619506836
 31
0.0
  0
LINE
  5
3F9
330
1FF
100
AcDbEntity
  8
0
  6
Continuous
 62
     7
100
AcDbLine
 10
1260.5522460938
 20
2762.5619506836
 30
0.0
 11
1276.9213867188
 21
2762.5619506836
 31
0.0
  0
LINE
  5
3FA
330
1FF
100
AcDbEntity
  8
DEFAULT_1
  6
CENTER
 62
     7
100
AcDbLine
 10
9719.814941406198
 20
2762.5619506836
 30
0.0
 11
9721.454589843801
 21
2762.5619506836
 31
0.0
  0
LINE
  5
3FB
330
1FF
100
AcDbEntity
  8
0
  6
Continuous
 62
     7
100
AcDbLine
 10
9721.454589843801
 20
2762.5619506836
 30
0.0
 11
9737.849609375
 21
2762.5619506836
 31
0.0
  0
LINE
  5
3FC
330
1FF
100
AcDbEntity
  8
DEFAULT_1
  6
CENTER
 62
     7
100
AcDbLine
 10
9737.849609375
 20
2762.5619506836
 30
0.0
 11
9739.489013671899
 21
2762.5619506836
 31
0.0
  0
LINE
  5
3FD
330
1FF
100
AcDbEntity
  8
DEFAULT_1
  6
CENTER
 62
     7
100
AcDbLine
 10
9753.643310546898
 20
2762.5619506836
 30
0.0
 11
9778.004882812501
 21
2762.5619506836
 31
0.0
  0
LINE
  5
3FE
330
1FF
100
AcDbEntity
  8
DEFAULT_1
  6
CENTER
 62
     7
100
AcDbLine
 10
10021.556640625
 20
2762.5619506836
 30
0.0
 11
10045.982421875
 21
2762.5619506836
 31
0.0
  0
LINE
  5
3FF
330
1FF
100
AcDbEntity
  8
0
  6
Continuous
 62
     7
100
AcDbLine
 10
9778.004882812501
 20
2762.5619506836
 30
0.0
 11
10021.556640625
 21
2762.5619506836
 31
0.0
  0
LINE
  5
400
330
1FF
100
AcDbEntity
  8
DEFAULT_1
  6
CENTER
 62
     7
100
AcDbLine
 10
10529.703125
 20
2762.5619506836
 30
0.0
 11
10559.654296875
 21
2762.5619506836
 31
0.0
  0
LINE
  5
401
330
1FF
100
AcDbEntity
  8
DEFAULT_1
  6
CENTER
 62
     7
100
AcDbLine
 10
10859.1669921875
 20
2762.5619506836
 30
0.0
 11
10889.1186523438
 21
2762.5619506836
 31
0.0
  0
LINE
  5
402
330
1FF
100
AcDbEntity
  8
0
  6
Continuous
 62
     7
100
AcDbLine
 10
10559.654296875
 20
2762.5619506836
 30
0.0
 11
10859.1669921875
 21
2762.5619506836
 31
0.0
  0
LINE
  5
403
330
1FF
100
AcDbEntity
  8
DEFAULT_1
  6
CENTER
 62
     7
100
AcDbLine
 10
10903.8618164063
 20
2762.5619506836
 30
0.0
 11
10904.8974609375
 21
2762.5619506836
 31
0.0
  0
LINE
  5
404
330
1FF
100
AcDbEntity
  8
0
  6
Continuous
 62
     7
100
AcDbLine
 10
10904.8974609375
 20
2762.5619506836
 30
0.0
 11
10915.2543945312
 21
2762.5619506836
 31
0.0
  0
LINE
  5
405
330
1FF
100
AcDbEntity
  8
DEFAULT_1
  6
CENTER
 62
     7
100
AcDbLine
 10
10915.2543945312
 20
2762.5619506836
 30
0.0
 11
10916.2900390625
 21
2762.5619506836
 31
0.0
  0
LINE
  5
406
330
1FF
100
AcDbEntity
  8
0
  6
Continuous
 62
     7
100
AcDbLine
 10
83.12158203119999
 20
2811.466369628901
 30
0.0
 11
93.478515625
 21
2811.466369628901
 31
0.0
  0
LINE
  5
407
330
1FF
100
AcDbEntity
  8
0
  6
Continuous
 62
     7
100
AcDbLine
 10
139.208984375
 20
2811.466369628901
 30
0.0
 11
438.7216796875
 21
2811.466369628901
 31
0.0
  0
LINE
  5
408
330
1FF
100
AcDbEntity
  8
0
  6
Continuous
 62
     7
100
AcDbLine
 10
977.0463867188
 20
2811.466369628901
 30
0.0
 11
1220.37109375
 21
2811.466369628901
 31
0.0
  0
LINE
  5
409
330
1FF
100
AcDbEntity
  8
0
  6
Continuous
 62
     7
100
AcDbLine
 10
1260.5556640625
 20
2811.466369628901
 30
0.0
 11
1276.9213867188
 21
2811.466369628901
 31
0.0
  0
LINE
  5
40A
330
1FF
100
AcDbEntity
  8
0
  6
Continuous
 62
     7
100
AcDbLine
 10
9721.454589843801
 20
2811.466369628901
 30
0.0
 11
9737.849609375
 21
2811.466369628901
 31
0.0
  0
LINE
  5
40B
330
1FF
100
AcDbEntity
  8
0
  6
Continuous
 62
     7
100
AcDbLine
 10
9778.004882812501
 20
2811.466369628901
 30
0.0
 11
10021.6206054688
 21
2811.466369628901
 31
0.0
  0
LINE
  5
40C
330
1FF
100
AcDbEntity
  8
0
  6
Continuous
 62
     7
100
AcDbLine
 10
10559.654296875
 20
2811.466369628901
 30
0.0
 11
10859.1669921875
 21
2811.466369628901
 31
0.0
  0
LINE
  5
40D
330
1FF
100
AcDbEntity
  8
0
  6
Continuous
 62
     7
100
AcDbLine
 10
10904.8974609375
 20
2811.466369628901
 30
0.0
 11
10915.2543945312
 21
2811.466369628901
 31
0.0
  0
LINE
  5
40E
330
1FF
100
AcDbEntity
  8
0
  6
Continuous
 62
     7
100
AcDbLine
 10
139.208984375
 20
2824.7315673828
 30
0.0
 11
438.7216796875
 21
2824.7315673828
 31
0.0
  0
LINE
  5
40F
330
1FF
100
AcDbEntity
  8
0
  6
Continuous
 62
     7
100
AcDbLine
 10
976.990234375
 20
2824.7315673828
 30
0.0
 11
1220.37109375
 21
2824.7315673828
 31
0.0
  0
LINE
  5
410
330
1FF
100
AcDbEntity
  8
0
  6
Continuous
 62
     7
100
AcDbLine
 10
9778.004882812501
 20
2824.7315673828
 30
0.0
 11
10859.1669921875
 21
2824.7315673828
 31
0.0
  0
LINE
  5
411
330
1FF
100
AcDbEntity
  8
0
  6
Continuous
 62
     7
100
AcDbLine
 10
9751.367675781303
 20
2826.9631958008
 30
0.0
 11
9778.004882812501
 21
2826.9631958008
 31
0.0
  0
LINE
  5
412
330
1FF
100
AcDbEntity
  8
0
  6
Continuous
 62
     7
100
AcDbLine
 10
10859.1669921875
 20
2827.0337524414
 30
0.0
 11
10901.736328125
 21
2827.0337524414
 31
0.0
  0
LINE
  5
413
330
1FF
100
AcDbEntity
  8
0
  6
Continuous
 62
     7
100
AcDbLine
 10
4555.3173828125
 20
2827.1405639648
 30
0.0
 11
4566.5230712891
 21
2827.1405639648
 31
0.0
  0
LINE
  5
414
330
1FF
100
AcDbEntity
  8
0
  6
Continuous
 62
     7
100
AcDbLine
 10
9751.367675781303
 20
2827.2478027344
 30
0.0
 11
10901.736328125
 21
2827.2478027344
 31
0.0
  0
LINE
  5
415
330
1FF
100
AcDbEntity
  8
0
  6
Continuous
 62
     7
100
AcDbLine
 10
139.208984375
 20
2845.1036376953
 30
0.0
 11
1220.37109375
 21
2845.1036376953
 31
0.0
  0
LINE
  5
416
330
1FF
100
AcDbEntity
  8
0
  6
Continuous
 62
     7
100
AcDbLine
 10
96.63964843750001
 20
2846.133972168
 30
0.0
 11
139.208984375
 21
2846.133972168
 31
0.0
  0
LINE
  5
417
330
1FF
100
AcDbEntity
  8
0
  6
Continuous
 62
     7
100
AcDbLine
 10
5923.990112304699
 20
2846.1713256836
 30
0.0
 11
5932.9146118164
 21
2846.1713256836
 31
0.0
  0
LINE
  5
418
330
1FF
100
AcDbEntity
  8
0
  6
Continuous
 62
     7
100
AcDbLine
 10
96.63964843750001
 20
2846.2091064453
 30
0.0
 11
1220.37109375
 21
2846.2091064453
 31
0.0
  0
LINE
  5
419
330
1FF
100
AcDbEntity
  8
0
  6
Continuous
 62
     7
100
AcDbLine
 10
4556.69921875
 20
2827.2214355469
 30
0.0
 11
4566.518676757801
 21
2827.0337524414
 31
0.0
  0
LINE
  5
41A
330
1FF
100
AcDbEntity
  8
0
  6
Continuous
 62
     7
100
AcDbLine
 10
641.130859375
 20
3389.4364929199
 30
0.0
 11
655.8911132813
 21
3387.4459838867
 31
0.0
  0
LINE
  5
41B
330
1FF
100
AcDbEntity
  8
0
  6
Continuous
 62
     7
100
AcDbLine
 10
670.6508789062
 20
3477.1199798584
 30
0.0
 11
655.8911132813
 21
3479.1104888916
 31
0.0
  0
LINE
  5
41C
330
1FF
100
AcDbEntity
  8
0
  6
Continuous
 62
     7
100
AcDbLine
 10
641.1362304688
 20
3389.4536590576
 30
0.0
 11
655.8911132813
 21
3387.4459838867
 31
0.0
  0
LINE
  5
41D
330
1FF
100
AcDbEntity
  8
0
  6
Continuous
 62
     7
100
AcDbLine
 10
670.6459960936999
 20
3477.1028137207
 30
0.0
 11
655.8911132813
 21
3479.1104888916
 31
0.0
  0
LINE
  5
41E
330
1FF
100
AcDbEntity
  8
0
  6
Continuous
 62
     7
100
AcDbLine
 10
655.8911132813
 20
3463.9436340332
 30
0.0
 11
670.4702148438
 21
3460.929260253901
 31
0.0
  0
LINE
  5
41F
330
1FF
100
AcDbEntity
  8
0
  6
Continuous
 62
     7
100
AcDbLine
 10
670.46875
 20
3460.9262084961
 30
0.0
 11
655.8911132813
 21
3463.9436340332
 31
0.0
  0
LINE
  5
420
330
1FF
100
AcDbEntity
  8
0
  6
Continuous
 62
     7
100
AcDbLine
 10
777.3852539062
 20
6202.0883789062
 30
0.0
 11
783.1103515625
 21
6197.104736328101
 31
0.0
  0
LINE
  5
421
330
1FF
100
AcDbEntity
  8
0
  6
Continuous
 62
     7
100
AcDbLine
 10
854.4682617188
 20
6219.4482421875
 30
0.0
 11
848.7431640625
 21
6224.4318847656
 31
0.0
  0
LINE
  5
423
330
1FF
100
AcDbEntity
  8
0
  6
Continuous
 62
     7
100
AcDbLine
 10
2398.1225585938
 20
135.4455566406
 30
0.0
 11
2686.1005859375
 21
1238.3537597656
 31
0.0
  0
LINE
  5
426
330
1FF
100
AcDbEntity
  8
0
  6
Continuous
 62
     7
100
AcDbLine
 10
4636.417480468799
 20
6396.911865234399
 30
0.0
 11
4732.870361328099
 21
6533.8493652344
 31
0.0
  0
LINE
  5
427
330
1FF
100
AcDbEntity
  8
0
  6
Continuous
 62
     7
100
AcDbLine
 10
8736.265380859398
 20
8768.286376953101
 30
0.0
 11
8730.416015625001
 21
8764.846435546898
 31
0.0
  0
LINE
  5
428
330
1FF
100
AcDbEntity
  8
0
  6
Continuous
 62
     7
100
AcDbLine
 10
8736.053222656199
 20
8768.140380859398
 30
0.0
 11
8730.151367187501
 21
8764.705322265601
 31
0.0
  0
LINE
  5
429
330
1FF
100
AcDbEntity
  8
0
  6
Continuous
 62
     7
100
AcDbLine
 10
4389.5222167969
 20
6255.188232421899
 30
0.0
 11
4462.9475097656
 21
6282.46484375
 31
0.0
  0
LINE
  5
42A
330
1FF
100
AcDbEntity
  8
0
  6
Continuous
 62
     7
100
AcDbLine
 10
4462.9475097656
 20
6282.46484375
 30
0.0
 11
4521.2750244141
 21
6304.120849609399
 31
0.0
  0
LINE
  5
42B
330
1FF
100
AcDbEntity
  8
0
  6
Continuous
 62
     7
100
AcDbLine
 10
4463.503540039099
 20
6280.9304199219
 30
0.0
 11
4646.771301269501
 21
6348.9763183594
 31
0.0
  0
LINE
  5
42C
330
1FF
100
AcDbEntity
  8
0
  6
Continuous
 62
     7
100
AcDbLine
 10
4389.5222167969
 20
6254.502197265601
 30
0.0
 11
4389.751708984401
 21
6254.5869140625
 31
0.0
  0
LINE
  5
42D
330
1FF
100
AcDbEntity
  8
0
  6
Continuous
 62
     7
100
AcDbLine
 10
4533.0999755859
 20
3175.5868530273
 30
0.0
 11
4561.9818115234
 21
3175.829467773401
 31
0.0
  0
LINE
  5
42E
330
1FF
100
AcDbEntity
  8
DEFAULT_1
  6
CENTER
 62
     7
100
AcDbLine
 10
4528.3723144531
 20
3232.395324707
 30
0.0
 11
4567.928955078099
 21
3232.7276000977
 31
0.0
  0
LINE
  5
42F
330
1FF
100
AcDbEntity
  8
0
  6
Continuous
 62
     7
100
AcDbLine
 10
671.6586914061999
 20
3735.3273010254
 30
0.0
 11
655.8911132813
 21
3737.388000488301
 31
0.0
  0
LINE
  5
430
330
1FF
100
AcDbEntity
  8
0
  6
Continuous
 62
     7
100
AcDbLine
 10
10002.9970703125
 20
930.3239746094
 30
0.0
 11
10021.251953125
 21
921.7490234375
 31
0.0
  0
LINE
  5
431
330
1FF
100
AcDbEntity
  8
0
  6
Continuous
 62
     7
100
AcDbLine
 10
794.138671875
 20
6204.485595703101
 30
0.0
 11
796.7763671874999
 21
6202.4675292969
 31
0.0
  0
LINE
  5
432
330
1FF
100
AcDbEntity
  8
0
  6
Continuous
 62
     7
100
AcDbLine
 10
853.1806640624999
 20
6220.8642578125
 30
0.0
 11
848.7382812499999
 21
6224.4387207031
 31
0.0
  0
LINE
  5
433
330
1FF
100
AcDbEntity
  8
0
  6
Continuous
 62
     7
100
AcDbLine
 10
3992.5661621094
 20
9206.226318359398
 30
0.0
 11
3992.5661621094
 21
9289.571533203101
 31
0.0
  0
LINE
  5
434
330
1FF
100
AcDbEntity
  8
0
  6
Continuous
 62
     7
100
AcDbLine
 10
4700.024291992199
 20
6511.674560546899
 30
0.0
 11
4777.336791992199
 21
6812.9541015625
 31
0.0
  0
LINE
  5
435
330
1FF
100
AcDbEntity
  8
0
  6
Continuous
 62
     7
100
AcDbLine
 10
2739.2622070312
 20
46.3713378906
 30
0.0
 11
2987.3063964844
 21
996.3391113281
 31
0.0
  0
LINE
  5
436
330
1FF
100
AcDbEntity
  8
0
  6
Continuous
 62
     7
100
AcDbLine
 10
2859.6645507813
 20
14.9333496094
 30
0.0
 11
3082.4633789063
 21
868.2160644531
 31
0.0
  0
LINE
  5
437
330
1FF
100
AcDbEntity
  8
0
  6
Continuous
 62
     7
100
AcDbLine
 10
5542.796752929699
 20
7791.489013671899
 30
0.0
 11
5544.196762085
 21
7794.288818359399
 31
0.0
  0
LINE
  5
438
330
1FF
100
AcDbEntity
  8
0
  6
Continuous
 62
     7
100
AcDbLine
 10
5536.8367538452
 20
7795.6887207031
 30
0.0
 11
5538.0034179688
 21
7797.7888183594
 31
0.0
  0
LINE
  5
439
330
1FF
100
AcDbEntity
  8
0
  6
Continuous
 62
     7
100
AcDbLine
 10
5601.5516967773
 20
7806.188720703101
 30
0.0
 11
5917.444488525401
 21
8359.280029296899
 31
0.0
  0
LINE
  5
43A
330
1FF
100
AcDbEntity
  8
0
  6
Continuous
 62
     7
100
AcDbLine
 10
4798.1318359375
 20
6283.007080078101
 30
0.0
 11
4828.1748657227
 21
6325.66015625
 31
0.0
  0
LINE
  5
43B
330
1FF
100
AcDbEntity
  8
0
  6
Continuous
 62
     7
100
AcDbLine
 10
4890.424987793
 20
6396.006103515601
 30
0.0
 11
4903.3400268555
 21
6413.7780761719
 31
0.0
  0
LINE
  5
43C
330
1FF
100
AcDbEntity
  8
0
  6
Continuous
 62
     7
100
AcDbLine
 10
634.1010742186999
 20
3474.6053314209
 30
0.0
 11
624.38671875
 21
3469.059143066401
 31
0.0
  0
LINE
  5
43D
330
1FF
100
AcDbEntity
  8
0
  6
Continuous
 62
     7
100
AcDbLine
 10
634.8125
 20
3457.218322753901
 30
0.0
 11
641.3120117188
 21
3460.929260253901
 31
0.0
  0
LINE
  5
43E
330
1FF
100
AcDbEntity
  8
0
  6
Continuous
 62
     7
100
AcDbLine
 10
676.9697265625
 20
3409.3381500244
 30
0.0
 11
670.4702148438
 21
3405.6268310547
 31
0.0
  0
LINE
  5
43F
330
1FF
100
AcDbEntity
  8
0
  6
Continuous
 62
     7
100
AcDbLine
 10
677.6806640624999
 20
3391.9511413574
 30
0.0
 11
687.3955078125
 21
3397.4973297119
 31
0.0
  0
LINE
  5
440
330
1FF
100
AcDbEntity
  8
0
  6
Continuous
 62
     7
100
AcDbLine
 10
670.46875
 20
3405.6298828125
 30
0.0
 11
676.9711914063
 21
3409.3324279785
 31
0.0
  0
LINE
  5
441
330
1FF
100
AcDbEntity
  8
0
  6
Continuous
 62
     7
100
AcDbLine
 10
634.103515625
 20
3474.6007537842
 30
0.0
 11
624.3847656249999
 21
3469.0671539307
 31
0.0
  0
LINE
  5
442
330
1FF
100
AcDbEntity
  8
0
  6
Continuous
 62
     7
100
AcDbLine
 10
641.3134765625
 20
3460.9262084961
 30
0.0
 11
634.8110351563
 21
3457.2240447998
 31
0.0
  0
LINE
  5
443
330
1FF
100
AcDbEntity
  8
0
  6
Continuous
 62
     7
100
AcDbLine
 10
677.6787109375
 20
3391.9557189941
 30
0.0
 11
687.3974609374999
 21
3397.4889373779
 31
0.0
  0
LINE
  5
444
330
1FF
100
AcDbEntity
  8
0
  6
Continuous
 62
     7
100
AcDbLine
 10
622.1772460938
 20
3726.8956756592
 30
0.0
 11
632.5849609375
 21
3732.741317749
 31
0.0
  0
LINE
  5
445
330
1FF
100
AcDbEntity
  8
0
  6
Continuous
 62
     7
100
AcDbLine
 10
4520.4547119141
 20
5883.6647949219
 30
0.0
 11
4596.240478515599
 21
5914.0703125
 31
0.0
  0
LINE
  5
446
330
1FF
100
AcDbEntity
  8
0
  6
Continuous
 62
     7
100
AcDbLine
 10
4520.4547119141
 20
5882.9790039062
 30
0.0
 11
4555.1833496094
 21
5896.912597656299
 31
0.0
  0
LINE
  5
447
330
1FF
100
AcDbEntity
  8
0
  6
Continuous
 62
     7
100
AcDbLine
 10
4520.4547119141
 20
5882.9790039062
 30
0.0
 11
4555.526245117198
 21
5897.0498046875
 31
0.0
  0
LINE
  5
448
330
1FF
100
AcDbEntity
  8
0
  6
Continuous
 62
     7
100
AcDbLine
 10
4537.5637207031
 20
5890.5319824219
 30
0.0
 11
4664.455688476599
 21
5936.4443359375
 31
0.0
  0
LINE
  5
449
330
1FF
100
AcDbEntity
  8
0
  6
Continuous
 62
     7
100
AcDbLine
 10
6020.5782470703
 20
3656.216583252
 30
0.0
 11
5926.163360595699
 21
3650.4453277588
 31
0.0
  0
LINE
  5
44A
330
1FF
100
AcDbEntity
  8
0
  6
Continuous
 62
     7
100
AcDbLine
 10
4532.145751953099
 20
3289.275131225601
 30
0.0
 11
4564.1552734375
 21
3289.544067382801
 31
0.0
  0
LINE
  5
44B
330
1FF
100
AcDbEntity
  8
0
  6
Continuous
 62
     7
100
AcDbLine
 10
6067.885467529301
 20
3656.3695526123
 30
0.0
 11
6020.5782470703
 21
3656.216583252
 31
0.0
  0
LINE
  5
44C
330
1FF
100
AcDbEntity
  8
0
  6
Continuous
 62
     7
100
AcDbLine
 10
10517.5
 20
1256.4013671875
 30
0.0
 11
10559.7006835938
 21
1238.3391113281
 31
0.0
  0
LINE
  5
44D
330
1FF
100
AcDbEntity
  8
0
  6
Continuous
 62
     7
100
AcDbLine
 10
777.5585937499999
 20
6201.896728515601
 30
0.0
 11
795.3701171875
 21
6191.6665039062
 31
0.0
  0
LINE
  5
44E
330
1FF
100
AcDbEntity
  8
0
  6
Continuous
 62
     7
100
AcDbLine
 10
2698.7214355469
 20
8617.2658691406
 30
0.0
 11
2690.7770996094
 21
8642.547607421899
 31
0.0
  0
LINE
  5
44F
330
1FF
100
AcDbEntity
  8
0
  6
Continuous
 62
     7
100
AcDbLine
 10
2874.3708496094
 20
9181.092529296899
 30
0.0
 11
2866.4729003906
 21
9206.226318359398
 31
0.0
  0
LINE
  5
450
330
1FF
100
AcDbEntity
  8
0
  6
Continuous
 62
     7
100
AcDbLine
 10
4652.758483886699
 20
5563.105224609399
 30
0.0
 11
4644.469543457
 21
5929.247314453101
 31
0.0
  0
LINE
  5
451
330
1FF
100
AcDbEntity
  8
0
  6
Continuous
 62
     7
100
AcDbLine
 10
4533.0999755859
 20
3175.5868530273
 30
0.0
 11
4532.145751953099
 21
3289.275131225601
 31
0.0
  0
LINE
  5
452
330
1FF
100
AcDbEntity
  8
0
  6
Continuous
 62
     7
100
AcDbLine
 10
4389.5222167969
 20
9206.226318359398
 30
0.0
 11
4389.5222167969
 21
9433.373779296898
 31
0.0
  0
LINE
  5
453
330
1FF
100
AcDbEntity
  8
0
  6
Continuous
 62
     7
100
AcDbLine
 10
4520.4547119141
 20
9181.066162109399
 30
0.0
 11
4520.4547119141
 21
9433.373779296898
 31
0.0
  0
LINE
  5
454
330
1FF
100
AcDbEntity
  8
0
  6
Continuous
 62
     7
100
AcDbLine
 10
4535.0964355469
 20
9480.5788574219
 30
0.0
 11
4535.0964355469
 21
9526.308837890601
 31
0.0
  0
LINE
  5
455
330
1FF
100
AcDbEntity
  8
0
  6
Continuous
 62
     7
100
AcDbLine
 10
4536.3392333984
 20
9360.775146484398
 30
0.0
 11
4536.3392333984
 21
9424.275146484399
 31
0.0
  0
LINE
  5
456
330
1FF
100
AcDbEntity
  8
0
  6
Continuous
 62
     7
100
AcDbLine
 10
4555.319335937499
 20
8372.779541015601
 30
0.0
 11
4555.319335937499
 21
8642.425537109399
 31
0.0
  0
LINE
  5
457
330
1FF
100
AcDbEntity
  8
0
  6
Continuous
 62
     7
100
AcDbLine
 10
4555.319335937499
 20
9181.099365234398
 30
0.0
 11
4555.319335937499
 21
9480.604736328102
 31
0.0
  0
LINE
  5
458
330
1FF
100
AcDbEntity
  8
0
  6
Continuous
 62
     7
100
AcDbLine
 10
4560.4912109375
 20
3718.983993530301
 30
0.0
 11
4560.4912109375
 21
3777.9779052734
 31
0.0
  0
LINE
  5
459
330
1FF
100
AcDbEntity
  8
0
  6
Continuous
 62
     7
100
AcDbLine
 10
4560.4912109375
 20
8359.2609863281
 30
0.0
 11
4560.4912109375
 21
8399.416748046899
 31
0.0
  0
LINE
  5
45A
330
1FF
100
AcDbEntity
  8
DEFAULT_1
  6
CENTER
 62
     7
100
AcDbLine
 10
4649.0765380859
 20
6319.3474121094
 30
0.0
 11
4649.0765380859
 21
6222.596191406299
 31
0.0
  0
LINE
  5
45B
330
1FF
100
AcDbEntity
  8
0
  6
Continuous
 62
     7
100
AcDbLine
 10
4686.972900390599
 20
8399.416748046899
 30
0.0
 11
4686.972900390599
 21
8643.419189453101
 31
0.0
  0
LINE
  5
45C
330
1FF
100
AcDbEntity
  8
0
  6
Continuous
 62
     7
100
AcDbLine
 10
4686.972900390599
 20
9181.066162109399
 30
0.0
 11
4686.972900390599
 21
9480.5788574219
 31
0.0
  0
LINE
  5
45D
330
1FF
100
AcDbEntity
  8
0
  6
Continuous
 62
     7
100
AcDbLine
 10
4704.5176391602
 20
8420.151123046899
 30
0.0
 11
4704.5176391602
 21
8643.392333984399
 31
0.0
  0
LINE
  5
45E
330
1FF
100
AcDbEntity
  8
0
  6
Continuous
 62
     7
100
AcDbLine
 10
4704.5176391602
 20
9181.066162109399
 30
0.0
 11
4704.5176391602
 21
9454.090087890602
 31
0.0
  0
LINE
  5
45F
330
1FF
100
AcDbEntity
  8
0
  6
Continuous
 62
     7
100
AcDbLine
 10
4706.901977539099
 20
8420.151123046899
 30
0.0
 11
4706.901977539099
 21
8643.392333984399
 31
0.0
  0
LINE
  5
460
330
1FF
100
AcDbEntity
  8
0
  6
Continuous
 62
     7
100
AcDbLine
 10
4706.901977539099
 20
9181.066162109399
 30
0.0
 11
4706.901977539099
 21
9454.090087890602
 31
0.0
  0
LINE
  5
461
330
1FF
100
AcDbEntity
  8
0
  6
Continuous
 62
     7
100
AcDbLine
 10
4721.8308105469
 20
8399.416748046899
 30
0.0
 11
4721.8308105469
 21
8420.264404296899
 31
0.0
  0
LINE
  5
462
330
1FF
100
AcDbEntity
  8
0
  6
Continuous
 62
     7
100
AcDbLine
 10
4730.9515380859
 20
8399.416748046899
 30
0.0
 11
4730.9515380859
 21
8420.299072265601
 31
0.0
  0
LINE
  5
463
330
1FF
100
AcDbEntity
  8
0
  6
Continuous
 62
     7
100
AcDbLine
 10
4730.9515380859
 20
9454.090087890602
 30
0.0
 11
4730.9515380859
 21
9480.5788574219
 31
0.0
  0
LINE
  5
464
330
1FF
100
AcDbEntity
  8
0
  6
Continuous
 62
     7
100
AcDbLine
 10
4705.303283691399
 20
8399.416748046899
 30
0.0
 11
4705.3048095703
 21
8420.187744140601
 31
0.0
  0
LINE
  5
465
330
1FF
100
AcDbEntity
  8
0
  6
Continuous
 62
     7
100
AcDbLine
 10
4555.3173828125
 20
2827.1405639648
 30
0.0
 11
4599.297729492199
 21
5128.183471679699
 31
0.0
  0
LINE
  5
466
330
1FF
100
AcDbEntity
  8
0
  6
Continuous
 62
     7
100
AcDbLine
 10
4590.1772460938
 20
4651.0034179688
 30
0.0
 11
4590.26953125
 21
4655.8251953125
 31
0.0
  0
LINE
  5
467
330
1FF
100
AcDbEntity
  8
0
  6
Continuous
 62
     7
100
AcDbLine
 10
4573.6477050781
 20
3786.1810302734
 30
0.0
 11
4573.691284179699
 21
3788.4568786621
 31
0.0
  0
LINE
  5
468
330
1FF
100
AcDbEntity
  8
0
  6
Continuous
 62
     7
100
AcDbLine
 10
4600.8120117188
 20
5128.1545410156
 30
0.0
 11
4623.6286621094
 21
5921.718017578101
 31
0.0
  0
LINE
  5
469
330
1FF
100
AcDbEntity
  8
0
  6
Continuous
 62
     7
100
AcDbLine
 10
4587.2315673828
 20
4655.8251953125
 30
0.0
 11
4596.531127929699
 21
4979.2691650391
 31
0.0
  0
LINE
  5
46A
330
1FF
100
AcDbEntity
  8
0
  6
Continuous
 62
     7
100
AcDbLine
 10
4535.0964355469
 20
1829.2481689453
 30
0.0
 11
4671.9387817383
 21
6174.41796875
 31
0.0
  0
LINE
  5
46B
330
1FF
100
AcDbEntity
  8
0
  6
Continuous
 62
     7
100
AcDbLine
 10
4842.6585083008
 20
6260.8308105469
 30
0.0
 11
4860.648620605499
 21
6331.4362792969
 31
0.0
  0
LINE
  5
46C
330
1FF
100
AcDbEntity
  8
0
  6
Continuous
 62
     7
100
AcDbLine
 10
4884.935668945301
 20
6426.7563476562
 30
0.0
 11
4958.4173583984
 21
6715.1499023438
 31
0.0
  0
LINE
  5
46D
330
1FF
100
AcDbEntity
  8
0
  6
Continuous
 62
     7
100
AcDbLine
 10
4842.660400390599
 20
6260.8369140625
 30
0.0
 11
4860.652404785199
 21
6331.4516601562
 31
0.0
  0
LINE
  5
46E
330
1FF
100
AcDbEntity
  8
0
  6
Continuous
 62
     7
100
AcDbLine
 10
5426.390335083
 20
6312.6801757812
 30
0.0
 11
5493.643447876
 21
6444.4162597656
 31
0.0
  0
LINE
  5
46F
330
1FF
100
AcDbEntity
  8
0
  6
Continuous
 62
     7
100
AcDbLine
 10
5604.349395752
 20
6251.1491699219
 30
0.0
 11
5685.5444641113
 21
6354.59765625
 31
0.0
  0
LINE
  5
470
330
1FF
100
AcDbEntity
  8
0
  6
Continuous
 62
     7
100
AcDbLine
 10
8050.002929687499
 20
8920.176513671899
 30
0.0
 11
8047.153320312501
 21
8916.905517578101
 31
0.0
  0
LINE
  5
471
330
1FF
100
AcDbEntity
  8
0
  6
Continuous
 62
     7
100
AcDbLine
 10
8050.062500000001
 20
8920.251220703102
 30
0.0
 11
8047.2158203125
 21
8916.989501953102
 31
0.0
  0
LINE
  5
472
330
1FF
100
AcDbEntity
  8
0
  6
Continuous
 62
     7
100
AcDbLine
 10
700.8984374999999
 20
865.7585449219
 30
0.0
 11
708.0415039062
 21
873.66796875
 31
0.0
  0
LINE
  5
473
330
1FF
100
AcDbEntity
  8
0
  6
Continuous
 62
     7
100
AcDbLine
 10
5724.135848999
 20
6135.2380371094
 30
0.0
 11
5832.1081848145
 21
6226.1545410156
 31
0.0
  0
LINE
  5
474
330
1FF
100
AcDbEntity
  8
0
  6
Continuous
 62
     7
100
AcDbLine
 10
5790.9228057861
 20
6022.3718261719
 30
0.0
 11
5912.2053833008
 21
6066.2546386719
 31
0.0
  0
LINE
  5
475
330
1FF
100
AcDbEntity
  8
0
  6
Continuous
 62
     7
100
AcDbLine
 10
655.8911132813
 20
3387.4459838867
 30
0.0
 11
670.6459960936999
 21
3389.4536590576
 31
0.0
  0
LINE
  5
476
330
1FF
100
AcDbEntity
  8
0
  6
Continuous
 62
     7
100
AcDbLine
 10
655.8911132813
 20
3387.4459838867
 30
0.0
 11
670.6508789062
 21
3389.4372558594
 31
0.0
  0
LINE
  5
477
330
1FF
100
AcDbEntity
  8
0
  6
Continuous
 62
     7
100
AcDbLine
 10
6018.0376586914
 20
3737.025604248
 30
0.0
 11
5925.4843444824
 21
3731.333312988301
 31
0.0
  0
LINE
  5
478
330
1FF
100
AcDbEntity
  8
0
  6
Continuous
 62
     7
100
AcDbLine
 10
6064.409912109399
 20
3737.3277282715
 30
0.0
 11
6018.0376586914
 21
3737.025604248
 31
0.0
  0
LINE
  5
479
330
1FF
100
AcDbEntity
  8
0
  6
Continuous
 62
     7
100
AcDbLine
 10
9751.367675781303
 20
3786.1810302734
 30
0.0
 11
10341.4174804688
 21
3788.4568786621
 31
0.0
  0
LINE
  5
47A
330
1FF
100
AcDbEntity
  8
0
  6
Continuous
 62
     7
100
AcDbLine
 10
9751.367675781303
 20
3804.1784057617
 30
0.0
 11
10341.4174804688
 21
3806.4546203613
 31
0.0
  0
LINE
  5
47B
330
1FF
100
AcDbEntity
  8
0
  6
Continuous
 62
     7
100
AcDbLine
 10
9751.367675781303
 20
3805.283508300801
 30
0.0
 11
10341.4174804688
 21
3807.559753418
 31
0.0
  0
LINE
  5
47C
330
1FF
100
AcDbEntity
  8
0
  6
Continuous
 62
     7
100
AcDbLine
 10
1260.5268554688
 20
3718.983993530301
 30
0.0
 11
1813.5988769531
 21
3718.983993530301
 31
0.0
  0
LINE
  5
47D
330
1FF
100
AcDbEntity
  8
0
  6
Continuous
 62
     7
100
AcDbLine
 10
4560.4912109375
 20
3718.983993530301
 30
0.0
 11
4572.4440917969
 21
3718.983993530301
 31
0.0
  0
LINE
  5
47E
330
1FF
100
AcDbEntity
  8
0
  6
Continuous
 62
     7
100
AcDbLine
 10
9184.777099609398
 20
3718.983993530301
 30
0.0
 11
9749.094238281301
 21
3718.983993530301
 31
0.0
  0
LINE
  5
47F
330
1FF
100
AcDbEntity
  8
0
  6
Continuous
 62
     7
100
AcDbLine
 10
1220.37109375
 20
3724.9971008301
 30
0.0
 11
1247.0083007813
 21
3724.9971008301
 31
0.0
  0
LINE
  5
480
330
1FF
100
AcDbEntity
  8
0
  6
Continuous
 62
     7
100
AcDbLine
 10
1260.5263671875
 20
3777.9779052734
 30
0.0
 11
1813.5988769531
 21
3777.9779052734
 31
0.0
  0
LINE
  5
481
330
1FF
100
AcDbEntity
  8
0
  6
Continuous
 62
     7
100
AcDbLine
 10
4560.4912109375
 20
3777.9779052734
 30
0.0
 11
4573.5714111328
 21
3777.9779052734
 31
0.0
  0
LINE
  5
482
330
1FF
100
AcDbEntity
  8
0
  6
Continuous
 62
     7
100
AcDbLine
 10
9184.777099609398
 20
3777.9779052734
 30
0.0
 11
9749.094238281301
 21
3777.9779052734
 31
0.0
  0
LINE
  5
483
330
1FF
100
AcDbEntity
  8
0
  6
Continuous
 62
     7
100
AcDbLine
 10
9737.849609375
 20
3784.4693756104
 30
0.0
 11
9751.367675781303
 21
3784.4693756104
 31
0.0
  0
LINE
  5
484
330
1FF
100
AcDbEntity
  8
0
  6
Continuous
 62
     7
100
AcDbLine
 10
9751.367675781303
 20
3788.101348877
 30
0.0
 11
9778.004882812501
 21
3788.101348877
 31
0.0
  0
LINE
  5
485
330
1FF
100
AcDbEntity
  8
0
  6
Continuous
 62
     7
100
AcDbLine
 10
1247.0083007813
 20
3788.491973877
 30
0.0
 11
1260.5263671875
 21
3788.491973877
 31
0.0
  0
LINE
  5
486
330
1FF
100
AcDbEntity
  8
0
  6
Continuous
 62
     7
100
AcDbLine
 10
9737.849609375
 20
3788.491973877
 30
0.0
 11
9751.367675781303
 21
3788.491973877
 31
0.0
  0
LINE
  5
487
330
1FF
100
AcDbEntity
  8
0
  6
Continuous
 62
     7
100
AcDbLine
 10
656.9584960938
 20
3807.559753418
 30
0.0
 11
1247.0083007813
 21
3805.283508300801
 31
0.0
  0
LINE
  5
488
330
1FF
100
AcDbEntity
  8
0
  6
Continuous
 62
     7
100
AcDbLine
 10
6133.9434204102
 20
3735.4238128662
 30
0.0
 11
6064.409912109399
 21
3737.3277282715
 31
0.0
  0
LINE
  5
489
330
1FF
100
AcDbEntity
  8
0
  6
Continuous
 62
     7
100
AcDbLine
 10
6138.8144226074
 20
3654.224929809601
 30
0.0
 11
6067.885467529301
 21
3656.3695526123
 31
0.0
  0
LINE
  5
48A
330
1FF
100
AcDbEntity
  8
0
  6
Continuous
 62
     7
100
AcDbLine
 10
6238.104125976601
 20
3729.3119049072
 30
0.0
 11
6133.9434204102
 21
3735.4238128662
 31
0.0
  0
LINE
  5
48B
330
1FF
100
AcDbEntity
  8
0
  6
Continuous
 62
     7
100
AcDbLine
 10
6245.056030273399
 20
3647.697219848601
 30
0.0
 11
6138.8144226074
 21
3654.224929809601
 31
0.0
  0
LINE
  5
48C
330
1FF
100
AcDbEntity
  8
0
  6
Continuous
 62
     7
100
AcDbLine
 10
6394.2282714844
 20
3718.2790374756
 30
0.0
 11
6238.104125976601
 21
3729.3119049072
 31
0.0
  0
LINE
  5
48D
330
1FF
100
AcDbEntity
  8
0
  6
Continuous
 62
     7
100
AcDbLine
 10
6404.2841796875
 20
3635.863265991201
 30
0.0
 11
6245.056030273399
 21
3647.697219848601
 31
0.0
  0
LINE
  5
48E
330
1FF
100
AcDbEntity
  8
0
  6
Continuous
 62
     7
100
AcDbLine
 10
6628.277465820301
 20
3699.918518066401
 30
0.0
 11
6394.2282714844
 21
3718.2790374756
 31
0.0
  0
LINE
  5
48F
330
1FF
100
AcDbEntity
  8
0
  6
Continuous
 62
     7
100
AcDbLine
 10
6391.5678710938
 20
3636.8104553223
 30
0.0
 11
6641.0540161133
 21
3617.1590423584
 31
0.0
  0
LINE
  5
490
330
1FF
100
AcDbEntity
  8
0
  6
Continuous
 62
     7
100
AcDbLine
 10
6643.0384521484
 20
3616.9885253906
 30
0.0
 11
6404.2841796875
 21
3635.863265991201
 31
0.0
  0
LINE
  5
491
330
1FF
100
AcDbEntity
  8
0
  6
Continuous
 62
     7
100
AcDbLine
 10
6641.0540161133
 20
3617.1590423584
 30
0.0
 11
6765.660766601602
 21
3605.735168457
 31
0.0
  0
LINE
  5
492
330
1FF
100
AcDbEntity
  8
0
  6
Continuous
 62
     7
100
AcDbLine
 10
6803.591796875
 20
3683.564529418901
 30
0.0
 11
6628.277465820301
 21
3699.918518066401
 31
0.0
  0
LINE
  5
493
330
1FF
100
AcDbEntity
  8
0
  6
Continuous
 62
     7
100
AcDbLine
 10
6821.861083984399
 20
3600.0470733643
 30
0.0
 11
6643.0384521484
 21
3616.9885253906
 31
0.0
  0
LINE
  5
494
330
1FF
100
AcDbEntity
  8
0
  6
Continuous
 62
     7
100
AcDbLine
 10
6765.660766601602
 20
3605.735168457
 30
0.0
 11
6952.2387695313
 21
3585.3257751465
 31
0.0
  0
LINE
  5
495
330
1FF
100
AcDbEntity
  8
0
  6
Continuous
 62
     7
100
AcDbLine
 10
6978.551391601602
 20
3663.7853240967
 30
0.0
 11
6803.591796875
 21
3683.564529418901
 31
0.0
  0
LINE
  5
496
330
1FF
100
AcDbEntity
  8
0
  6
Continuous
 62
     7
100
AcDbLine
 10
7000.2802734375
 20
3579.300842285201
 30
0.0
 11
6821.861083984399
 21
3600.0470733643
 31
0.0
  0
LINE
  5
497
330
1FF
100
AcDbEntity
  8
0
  6
Continuous
 62
     7
100
AcDbLine
 10
6952.2387695313
 20
3585.3257751465
 30
0.0
 11
7091.7913818359
 21
3566.859970092801
 31
0.0
  0
LINE
  5
498
330
1FF
100
AcDbEntity
  8
0
  6
Continuous
 62
     7
100
AcDbLine
 10
7152.9913330078
 20
3639.856109619099
 30
0.0
 11
6978.551391601602
 21
3663.7853240967
 31
0.0
  0
LINE
  5
499
330
1FF
100
AcDbEntity
  8
0
  6
Continuous
 62
     7
100
AcDbLine
 10
7178.1164550781
 20
3554.0414428711
 30
0.0
 11
7000.2802734375
 21
3579.300842285201
 31
0.0
  0
LINE
  5
49A
330
1FF
100
AcDbEntity
  8
0
  6
Continuous
 62
     7
100
AcDbLine
 10
7091.7913818359
 20
3566.859970092801
 30
0.0
 11
7230.9656982422
 21
3545.725402832
 31
0.0
  0
LINE
  5
49B
330
1FF
100
AcDbEntity
  8
0
  6
Continuous
 62
     7
100
AcDbLine
 10
7326.886962890601
 20
3612.238464355499
 30
0.0
 11
7152.9913330078
 21
3639.856109619099
 31
0.0
  0
LINE
  5
49C
330
1FF
100
AcDbEntity
  8
0
  6
Continuous
 62
     7
100
AcDbLine
 10
7355.363281249999
 20
3524.922332763701
 30
0.0
 11
7178.1164550781
 21
3554.0414428711
 31
0.0
  0
LINE
  5
49D
330
1FF
100
AcDbEntity
  8
0
  6
Continuous
 62
     7
100
AcDbLine
 10
7230.9656982422
 20
3545.725402832
 30
0.0
 11
7369.7912597656
 21
3522.4095916748
 31
0.0
  0
LINE
  5
49E
330
1FF
100
AcDbEntity
  8
0
  6
Continuous
 62
     7
100
AcDbLine
 10
7557.9760742188
 20
3570.8486175537
 30
0.0
 11
7326.886962890601
 21
3612.238464355499
 31
0.0
  0
LINE
  5
49F
330
1FF
100
AcDbEntity
  8
0
  6
Continuous
 62
     7
100
AcDbLine
 10
7369.7912597656
 20
3522.4095916748
 30
0.0
 11
7508.320922851601
 21
3497.3901367188
 31
0.0
  0
LINE
  5
4A0
330
1FF
100
AcDbEntity
  8
0
  6
Continuous
 62
     7
100
AcDbLine
 10
7590.945678710899
 20
3481.7926025391
 30
0.0
 11
7355.363281249999
 21
3524.922332763701
 31
0.0
  0
LINE
  5
4A1
330
1FF
100
AcDbEntity
  8
0
  6
Continuous
 62
     7
100
AcDbLine
 10
7508.320922851601
 20
3497.3901367188
 30
0.0
 11
7692.6546630859
 21
3462.031707763701
 31
0.0
  0
LINE
  5
4A2
330
1FF
100
AcDbEntity
  8
0
  6
Continuous
 62
     7
100
AcDbLine
 10
7711.645751953101
 20
3541.151199340801
 30
0.0
 11
7557.9760742188
 21
3570.8486175537
 31
0.0
  0
LINE
  5
4A3
330
1FF
100
AcDbEntity
  8
0
  6
Continuous
 62
     7
100
AcDbLine
 10
7747.6416015625
 20
3451.135406494099
 30
0.0
 11
7590.945678710899
 21
3481.7926025391
 31
0.0
  0
LINE
  5
4A4
330
1FF
100
AcDbEntity
  8
0
  6
Continuous
 62
     7
100
AcDbLine
 10
8018.462158203099
 20
3479.1104888916
 30
0.0
 11
7711.645751953101
 21
3541.151199340801
 31
0.0
  0
LINE
  5
4A5
330
1FF
100
AcDbEntity
  8
0
  6
Continuous
 62
     7
100
AcDbLine
 10
7692.6546630859
 20
3462.031707763701
 30
0.0
 11
8060.5598144531
 21
3387.4459838867
 31
0.0
  0
LINE
  5
4A6
330
1FF
100
AcDbEntity
  8
0
  6
Continuous
 62
     7
100
AcDbLine
 10
8060.5598144531
 20
3387.4459838867
 30
0.0
 11
7747.6416015625
 21
3451.135406494099
 31
0.0
  0
LINE
  5
4A7
330
1FF
100
AcDbEntity
  8
0
  6
Continuous
 62
     7
100
AcDbLine
 10
10559.654296875
 20
1236.6000976562
 30
0.0
 11
10577.6713867188
 21
1228.1369628906
 31
0.0
  0
LINE
  5
4A8
330
1FF
100
AcDbEntity
  8
0
  6
Continuous
 62
     7
100
AcDbLine
 10
10283.1909179688
 20
1366.4641113281
 30
0.0
 11
10517.5
 21
1256.4013671875
 31
0.0
  0
LINE
  5
4A9
330
1FF
100
AcDbEntity
  8
0
  6
Continuous
 62
     7
100
AcDbLine
 10
796.7763671874999
 20
6202.4675292969
 30
0.0
 11
801.2495117188001
 21
6200.274902343799
 31
0.0
  0
LINE
  5
4AA
330
1FF
100
AcDbEntity
  8
0
  6
Continuous
 62
     7
100
AcDbLine
 10
5855.8325500488
 20
2602.4877319336
 30
0.0
 11
5838.827011108399
 21
2630.5325927734
 31
0.0
  0
LINE
  5
4AB
330
1FF
100
AcDbEntity
  8
0
  6
Continuous
 62
     7
100
AcDbLine
 10
5855.8325500488
 20
2602.4877319336
 30
0.0
 11
5838.827011108399
 21
2630.5329589844
 31
0.0
  0
LINE
  5
4AC
330
1FF
100
AcDbEntity
  8
0
  6
Continuous
 62
     7
100
AcDbLine
 10
2398.1447753906
 20
8643.392333984399
 30
0.0
 11
2267.6867675781
 21
8911.745849609399
 31
0.0
  0
LINE
  5
4AD
330
1FF
100
AcDbEntity
  8
0
  6
Continuous
 62
     7
100
AcDbLine
 10
3078.4106445312
 20
8918.888916015601
 30
0.0
 11
2987.3063964844
 21
9181.066162109399
 31
0.0
  0
LINE
  5
4AE
330
1FF
100
AcDbEntity
  8
0
  6
Continuous
 62
     7
100
AcDbLine
 10
4861.4172363281
 20
9480.5788574219
 30
0.0
 11
4861.4172363281
 21
9526.308837890601
 31
0.0
  0
LINE
  5
4AF
330
1FF
100
AcDbEntity
  8
0
  6
Continuous
 62
     7
100
AcDbLine
 10
4886.8120727539
 20
8359.2609863281
 30
0.0
 11
4886.8120727539
 21
8399.416748046899
 31
0.0
  0
LINE
  5
4B0
330
1FF
100
AcDbEntity
  8
0
  6
Continuous
 62
     7
100
AcDbLine
 10
4943.2456054688
 20
8399.416748046899
 30
0.0
 11
4943.2456054688
 21
8420.151123046899
 31
0.0
  0
LINE
  5
4B1
330
1FF
100
AcDbEntity
  8
0
  6
Continuous
 62
     7
100
AcDbLine
 10
4943.2456054688
 20
9454.090087890602
 30
0.0
 11
4943.2456054688
 21
9480.5788574219
 31
0.0
  0
LINE
  5
4B2
330
1FF
100
AcDbEntity
  8
0
  6
Continuous
 62
     7
100
AcDbLine
 10
4943.2456054688
 20
9526.308837890601
 30
0.0
 11
4943.2456054688
 21
9542.455810546899
 31
0.0
  0
LINE
  5
4B3
330
1FF
100
AcDbEntity
  8
DEFAULT_1
  6
CENTER
 62
     7
100
AcDbLine
 10
4997.710693359401
 20
5022.2707519531
 30
0.0
 11
4997.710693359401
 21
4880.6607666016
 31
0.0
  0
LINE
  5
4B4
330
1FF
100
AcDbEntity
  8
DEFAULT_1
  6
CENTER
 62
     7
100
AcDbLine
 10
4997.710693359401
 20
8397.343017578101
 30
0.0
 11
4997.710693359401
 21
8422.224853515601
 31
0.0
  0
LINE
  5
4B5
330
1FF
100
AcDbEntity
  8
DEFAULT_1
  6
CENTER
 62
     7
100
AcDbLine
 10
4997.710693359401
 20
9451.441162109398
 30
0.0
 11
4997.710693359401
 21
9483.227783203101
 31
0.0
  0
LINE
  5
4B6
330
1FF
100
AcDbEntity
  8
DEFAULT_1
  6
CENTER
 62
     7
100
AcDbLine
 10
4997.710693359401
 20
9524.694091796899
 30
0.0
 11
4997.710693359401
 21
9544.070556640601
 31
0.0
  0
LINE
  5
4B7
330
1FF
100
AcDbEntity
  8
0
  6
Continuous
 62
     7
100
AcDbLine
 10
5052.1761474609
 20
8399.416748046899
 30
0.0
 11
5052.1761474609
 21
8420.151123046899
 31
0.0
  0
LINE
  5
4B8
330
1FF
100
AcDbEntity
  8
0
  6
Continuous
 62
     7
100
AcDbLine
 10
5052.1761474609
 20
9454.090087890602
 30
0.0
 11
5052.1761474609
 21
9480.5788574219
 31
0.0
  0
LINE
  5
4B9
330
1FF
100
AcDbEntity
  8
0
  6
Continuous
 62
     7
100
AcDbLine
 10
5052.1761474609
 20
9526.308837890601
 30
0.0
 11
5052.1761474609
 21
9542.455810546899
 31
0.0
  0
LINE
  5
4BA
330
1FF
100
AcDbEntity
  8
0
  6
Continuous
 62
     7
100
AcDbLine
 10
5791.312286376999
 20
8642.425537109399
 30
0.0
 11
5855.8325500488
 21
8911.745849609399
 31
0.0
  0
LINE
  5
4BB
330
1FF
100
AcDbEntity
  8
0
  6
Continuous
 62
     7
100
AcDbLine
 10
5851.4727325439
 20
5784.1630859375
 30
0.0
 11
5955.337402343801
 21
5885.5729980469
 31
0.0
  0
LINE
  5
4BC
330
1FF
100
AcDbEntity
  8
0
  6
Continuous
 62
     7
100
AcDbLine
 10
8743.5493164063
 20
8775.377197265601
 30
0.0
 11
8736.265380859398
 21
8768.286376953101
 31
0.0
  0
LINE
  5
4BD
330
1FF
100
AcDbEntity
  8
0
  6
Continuous
 62
     7
100
AcDbLine
 10
8743.4287109375
 20
8775.227294921899
 30
0.0
 11
8736.053222656199
 21
8768.140380859398
 31
0.0
  0
LINE
  5
4BE
330
1FF
100
AcDbEntity
  8
0
  6
Continuous
 62
     7
100
AcDbLine
 10
5854.710647583001
 20
5652.876464843799
 30
0.0
 11
5919.800048828101
 21
5676.4267578125
 31
0.0
  0
LINE
  5
4BF
330
1FF
100
AcDbEntity
  8
0
  6
Continuous
 62
     7
100
AcDbLine
 10
5854.713699340799
 20
5652.8771972656
 30
0.0
 11
5919.800048828101
 21
5676.4267578125
 31
0.0
  0
LINE
  5
4C0
330
1FF
100
AcDbEntity
  8
0
  6
Continuous
 62
     7
100
AcDbLine
 10
641.130859375
 20
3477.119216918901
 30
0.0
 11
634.1010742186999
 21
3474.6053314209
 31
0.0
  0
LINE
  5
4C1
330
1FF
100
AcDbEntity
  8
0
  6
Continuous
 62
     7
100
AcDbLine
 10
641.1362304688
 20
3477.1028137207
 30
0.0
 11
634.103515625
 21
3474.6007537842
 31
0.0
  0
LINE
  5
4C2
330
1FF
100
AcDbEntity
  8
0
  6
Continuous
 62
     7
100
AcDbLine
 10
632.5849609375
 20
3732.741317749
 30
0.0
 11
640.123046875
 21
3735.3273010254
 31
0.0
  0
LINE
  5
4C3
330
1FF
100
AcDbEntity
  8
0
  6
Continuous
 62
     7
100
AcDbLine
 10
7501.356811523399
 20
4989.491455078099
 30
0.0
 11
7416.0388183594
 21
4965.852905273401
 31
0.0
  0
LINE
  5
4C4
330
1FF
100
AcDbEntity
  8
0
  6
Continuous
 62
     7
100
AcDbLine
 10
655.8911132813
 20
3402.6124572754
 30
0.0
 11
670.46875
 21
3405.6298828125
 31
0.0
  0
LINE
  5
4C5
330
1FF
100
AcDbEntity
  8
0
  6
Continuous
 62
     7
100
AcDbLine
 10
670.4702148438
 20
3405.6268310547
 30
0.0
 11
655.8911132813
 21
3402.6124572754
 31
0.0
  0
LINE
  5
4C6
330
1FF
100
AcDbEntity
  8
0
  6
Continuous
 62
     7
100
AcDbLine
 10
655.8911132813
 20
3479.1104888916
 30
0.0
 11
641.1362304688
 21
3477.1028137207
 31
0.0
  0
LINE
  5
4C7
330
1FF
100
AcDbEntity
  8
0
  6
Continuous
 62
     7
100
AcDbLine
 10
655.8911132813
 20
3479.1104888916
 30
0.0
 11
641.130859375
 21
3477.119216918901
 31
0.0
  0
LINE
  5
4C8
330
1FF
100
AcDbEntity
  8
0
  6
Continuous
 62
     7
100
AcDbLine
 10
640.123046875
 20
3735.3273010254
 30
0.0
 11
655.8911132813
 21
3737.388000488301
 31
0.0
  0
LINE
  5
4C9
330
1FF
100
AcDbEntity
  8
0
  6
Continuous
 62
     7
100
AcDbLine
 10
802.5893554688
 20
6199.8032226563
 30
0.0
 11
796.46875
 21
6202.666748046899
 31
0.0
  0
LINE
  5
4CA
330
1FF
100
AcDbEntity
  8
0
  6
Continuous
 62
     7
100
AcDbLine
 10
829.2641601561999
 20
6221.7331542969
 30
0.0
 11
835.384765625
 21
6218.8698730469
 31
0.0
  0
LINE
  5
4CB
330
1FF
100
AcDbEntity
  8
0
  6
Continuous
 62
     7
100
AcDbLine
 10
783.1103515625
 20
6197.104736328101
 30
0.0
 11
793.4306640625
 21
6192.2746582031
 31
0.0
  0
LINE
  5
4CC
330
1FF
100
AcDbEntity
  8
0
  6
Continuous
 62
     7
100
AcDbLine
 10
835.3823242186999
 20
6218.8745117188
 30
0.0
 11
829.2641601561999
 21
6221.7377929688
 31
0.0
  0
LINE
  5
4CD
330
1FF
100
AcDbEntity
  8
0
  6
Continuous
 62
     7
100
AcDbLine
 10
848.7382812499999
 20
6224.4387207031
 30
0.0
 11
838.419921875
 21
6229.2680664062
 31
0.0
  0
LINE
  5
4CE
330
1FF
100
AcDbEntity
  8
0
  6
Continuous
 62
     7
100
AcDbLine
 10
848.7431640625
 20
6224.4318847656
 30
0.0
 11
838.4228515625
 21
6229.2619628906
 31
0.0
  0
LINE
  5
4CF
330
1FF
100
AcDbEntity
  8
0
  6
Continuous
 62
     7
100
AcDbLine
 10
2859.6645507813
 20
8911.745849609399
 30
0.0
 11
2739.2622070312
 21
9181.066162109399
 31
0.0
  0
LINE
  5
4D0
330
1FF
100
AcDbEntity
  8
0
  6
Continuous
 62
     7
100
AcDbLine
 10
5501.6466827393
 20
2744.8430786133
 30
0.0
 11
5501.5055389404
 21
2745.2104492188
 31
0.0
  0
LINE
  5
4D1
330
1FF
100
AcDbEntity
  8
0
  6
Continuous
 62
     7
100
AcDbLine
 10
4946.9321289062
 20
4931.768188476599
 30
0.0
 11
4946.7291259766
 21
4932.2995605469
 31
0.0
  0
LINE
  5
4D2
330
1FF
100
AcDbEntity
  8
0
  6
Continuous
 62
     7
100
AcDbLine
 10
4596.240478515599
 20
5914.0703125
 30
0.0
 11
4462.9475097656
 21
6282.46484375
 31
0.0
  0
LINE
  5
4D3
330
1FF
100
AcDbEntity
  8
0
  6
Continuous
 62
     7
100
AcDbLine
 10
4520.4547119141
 20
5882.9790039062
 30
0.0
 11
4389.5222167969
 21
6254.502197265601
 31
0.0
  0
LINE
  5
4D4
330
1FF
100
AcDbEntity
  8
0
  6
Continuous
 62
     7
100
AcDbLine
 10
4520.4547119141
 20
5883.6647949219
 30
0.0
 11
4389.5222167969
 21
6255.188232421899
 31
0.0
  0
LINE
  5
4D5
330
1FF
100
AcDbEntity
  8
0
  6
Continuous
 62
     7
100
AcDbLine
 10
4799.714538574199
 20
6223.08984375
 30
0.0
 11
4789.065429687499
 21
6289.3959960938
 31
0.0
  0
LINE
  5
4D6
330
1FF
100
AcDbEntity
  8
0
  6
Continuous
 62
     7
100
AcDbLine
 10
4799.7153320313
 20
6223.0859375
 30
0.0
 11
4789.065429687499
 21
6289.3959960938
 31
0.0
  0
LINE
  5
4D7
330
1FF
100
AcDbEntity
  8
0
  6
Continuous
 62
     7
100
AcDbLine
 10
5187.890502929699
 20
8399.416748046899
 30
0.0
 11
5187.890502929699
 21
8420.353271484399
 31
0.0
  0
LINE
  5
4D8
330
1FF
100
AcDbEntity
  8
0
  6
Continuous
 62
     7
100
AcDbLine
 10
5223.5869140625
 20
2141.0100097656
 30
0.0
 11
5223.5869140625
 21
2152.7984619141
 31
0.0
  0
LINE
  5
4D9
330
1FF
100
AcDbEntity
  8
DEFAULT_1
  6
CENTER
 62
     7
100
AcDbLine
 10
5267.1587524414
 20
8076.9724121094
 30
0.0
 11
5267.1587524414
 21
7829.3225097656
 31
0.0
  0
LINE
  5
4DA
330
1FF
100
AcDbEntity
  8
0
  6
Continuous
 62
     7
100
AcDbLine
 10
5292.454406738301
 20
9454.090087890602
 30
0.0
 11
5292.454406738301
 21
9480.5788574219
 31
0.0
  0
LINE
  5
4DB
330
1FF
100
AcDbEntity
  8
0
  6
Continuous
 62
     7
100
AcDbLine
 10
5292.454406738301
 20
9526.308837890601
 30
0.0
 11
5292.454406738301
 21
9602.011474609399
 31
0.0
  0
LINE
  5
4DC
330
1FF
100
AcDbEntity
  8
DEFAULT_1
  6
CENTER
 62
     7
100
AcDbLine
 10
5352.496215820301
 20
9616.803466796898
 30
0.0
 11
5352.496215820301
 21
9439.297607421899
 31
0.0
  0
LINE
  5
4DD
330
1FF
100
AcDbEntity
  8
DEFAULT_1
  6
CENTER
 62
     7
100
AcDbLine
 10
5352.496215820301
 20
5992.388427734399
 30
0.0
 11
5352.496215820301
 21
5836.2795410156
 31
0.0
  0
LINE
  5
4DE
330
1FF
100
AcDbEntity
  8
DEFAULT_1
  6
CENTER
 62
     7
100
AcDbLine
 10
5359.5400390625
 20
8928.825439453101
 30
0.0
 11
5359.5400390625
 21
8852.114990234399
 31
0.0
  0
LINE
  5
4DF
330
1FF
100
AcDbEntity
  8
DEFAULT_1
  6
CENTER
 62
     7
100
AcDbLine
 10
5365.3235168457
 20
9064.129638671898
 30
0.0
 11
5365.3235168457
 21
8695.614013671898
 31
0.0
  0
LINE
  5
4E0
330
1FF
100
AcDbEntity
  8
DEFAULT_1
  6
CENTER
 62
     7
100
AcDbLine
 10
5365.3235168457
 20
2396.1097412109
 30
0.0
 11
5365.3235168457
 21
2262.8547363281
 31
0.0
  0
LINE
  5
4E1
330
1FF
100
AcDbEntity
  8
DEFAULT_1
  6
CENTER
 62
     7
100
AcDbLine
 10
5365.3235168457
 20
2141.0100097656
 30
0.0
 11
5365.3235168457
 21
2117.7918701172
 31
0.0
  0
LINE
  5
4E2
330
1FF
100
AcDbEntity
  8
0
  6
Continuous
 62
     7
100
AcDbLine
 10
5365.3235168457
 20
2141.0100097656
 30
0.0
 11
5365.3235168457
 21
2262.8547363281
 31
0.0
  0
LINE
  5
4E3
330
1FF
100
AcDbEntity
  8
0
  6
Continuous
 62
     7
100
AcDbLine
 10
5412.5380249023
 20
9454.090087890602
 30
0.0
 11
5412.5380249023
 21
9480.5788574219
 31
0.0
  0
LINE
  5
4E4
330
1FF
100
AcDbEntity
  8
0
  6
Continuous
 62
     7
100
AcDbLine
 10
5412.5380249023
 20
9526.308837890601
 30
0.0
 11
5412.5380249023
 21
9602.011474609399
 31
0.0
  0
LINE
  5
4E5
330
1FF
100
AcDbEntity
  8
0
  6
Continuous
 62
     7
100
AcDbLine
 10
5498.3236999512
 20
8342.865966796898
 30
0.0
 11
5498.3236999512
 21
8359.2609863281
 31
0.0
  0
LINE
  5
4E6
330
1FF
100
AcDbEntity
  8
0
  6
Continuous
 62
     7
100
AcDbLine
 10
5498.3236999512
 20
8399.416748046899
 30
0.0
 11
5498.3236999512
 21
8642.442626953101
 31
0.0
  0
LINE
  5
4E7
330
1FF
100
AcDbEntity
  8
0
  6
Continuous
 62
     7
100
AcDbLine
 10
5498.3236999512
 20
9181.066162109399
 30
0.0
 11
5498.3236999512
 21
9480.5788574219
 31
0.0
  0
LINE
  5
4E8
330
1FF
100
AcDbEntity
  8
0
  6
Continuous
 62
     7
100
AcDbLine
 10
5498.3236999512
 20
9526.337646484398
 30
0.0
 11
5498.3236999512
 21
9536.666259765601
 31
0.0
  0
LINE
  5
4E9
330
1FF
100
AcDbEntity
  8
0
  6
Continuous
 62
     7
100
AcDbLine
 10
5507.0605010986
 20
2141.0100097656
 30
0.0
 11
5507.0605010986
 21
2372.9165039062
 31
0.0
  0
LINE
  5
4EC
330
1FF
100
AcDbEntity
  8
0
  6
Continuous
 62
     7
100
AcDbLine
 10
5510.6100921631
 20
7793.3557128906
 30
0.0
 11
5510.6100921631
 21
7794.0554199219
 31
0.0
  0
LINE
  5
4ED
330
1FF
100
AcDbEntity
  8
0
  6
Continuous
 62
     7
100
AcDbLine
 10
5511.076751709
 20
7798.9553222656
 30
0.0
 11
5511.076751709
 21
7795.6887207031
 31
0.0
  0
LINE
  5
4EF
330
1FF
100
AcDbEntity
  8
0
  6
Continuous
 62
     7
100
AcDbLine
 10
5512.943420410199
 20
7791.722412109399
 30
0.0
 11
5512.943420410199
 21
7792.655517578101
 31
0.0
  0
LINE
  5
4F0
330
1FF
100
AcDbEntity
  8
0
  6
Continuous
 62
     7
100
AcDbLine
 10
5512.943420410199
 20
7796.1555175781
 30
0.0
 11
5512.943420410199
 21
7797.088623046899
 31
0.0
  0
LINE
  5
4F1
330
1FF
100
AcDbEntity
  8
0
  6
Continuous
 62
     7
100
AcDbLine
 10
5512.943420410199
 20
7798.0222167969
 30
0.0
 11
5512.943420410199
 21
7798.4885253906
 31
0.0
  0
LINE
  5
4F3
330
1FF
100
AcDbEntity
  8
0
  6
Continuous
 62
     7
100
AcDbLine
 10
5514.4234161377
 20
7791.722412109399
 30
0.0
 11
5514.4234161377
 21
7792.8889160156
 31
0.0
  0
LINE
  5
4F4
330
1FF
100
AcDbEntity
  8
0
  6
Continuous
 62
     7
100
AcDbLine
 10
5514.4234161377
 20
7796.1555175781
 30
0.0
 11
5514.4234161377
 21
7797.322021484399
 31
0.0
  0
LINE
  5
4F6
330
1FF
100
AcDbEntity
  8
0
  6
Continuous
 62
     7
100
AcDbLine
 10
5516.2900848389
 20
7797.322021484399
 30
0.0
 11
5516.2900848389
 21
7796.1555175781
 31
0.0
  0
LINE
  5
4F8
330
1FF
100
AcDbEntity
  8
0
  6
Continuous
 62
     7
100
AcDbLine
 10
5517.7700805664
 20
7791.722412109399
 30
0.0
 11
5517.7700805664
 21
7791.955810546899
 31
0.0
  0
LINE
  5
4FA
330
1FF
100
AcDbEntity
  8
0
  6
Continuous
 62
     7
100
AcDbLine
 10
5518.936752319301
 20
7798.9553222656
 30
0.0
 11
5518.936752319301
 21
7796.1555175781
 31
0.0
  0
LINE
  5
4FC
330
1FF
100
AcDbEntity
  8
0
  6
Continuous
 62
     7
100
AcDbLine
 10
5519.636749267601
 20
7792.8889160156
 30
0.0
 11
5519.636749267601
 21
7791.722412109399
 31
0.0
  0
LINE
  5
500
330
1FF
100
AcDbEntity
  8
0
  6
Continuous
 62
     7
100
AcDbLine
 10
5522.516754150401
 20
7798.9553222656
 30
0.0
 11
5522.516754150401
 21
7796.1555175781
 31
0.0
  0
LINE
  5
501
330
1FF
100
AcDbEntity
  8
0
  6
Continuous
 62
     7
100
AcDbLine
 10
5522.516754150401
 20
7794.522216796899
 30
0.0
 11
5522.516754150401
 21
7791.255615234399
 31
0.0
  0
LINE
  5
504
330
1FF
100
AcDbEntity
  8
0
  6
Continuous
 62
     7
100
AcDbLine
 10
5525.1634216309
 20
7791.722412109399
 30
0.0
 11
5525.1634216309
 21
7792.8889160156
 31
0.0
  0
LINE
  5
505
330
1FF
100
AcDbEntity
  8
0
  6
Continuous
 62
     7
100
AcDbLine
 10
5525.1634216309
 20
7796.1555175781
 30
0.0
 11
5525.1634216309
 21
7797.322021484399
 31
0.0
  0
LINE
  5
508
330
1FF
100
AcDbEntity
  8
0
  6
Continuous
 62
     7
100
AcDbLine
 10
5527.030090331999
 20
7797.322021484399
 30
0.0
 11
5527.030090331999
 21
7796.1555175781
 31
0.0
  0
LINE
  5
509
330
1FF
100
AcDbEntity
  8
0
  6
Continuous
 62
     7
100
AcDbLine
 10
5527.030090331999
 20
7792.8889160156
 30
0.0
 11
5527.030090331999
 21
7792.4221191406
 31
0.0
  0
LINE
  5
50A
330
1FF
100
AcDbEntity
  8
0
  6
Continuous
 62
     7
100
AcDbLine
 10
5528.276748657199
 20
7795.6887207031
 30
0.0
 11
5528.276748657199
 21
7797.322021484399
 31
0.0
  0
LINE
  5
50D
330
1FF
100
AcDbEntity
  8
0
  6
Continuous
 62
     7
100
AcDbLine
 10
5528.7434234619
 20
7792.655517578101
 30
0.0
 11
5528.7434234619
 21
7793.1223144531
 31
0.0
  0
LINE
  5
50E
330
1FF
100
AcDbEntity
  8
0
  6
Continuous
 62
     7
100
AcDbLine
 10
5528.7434234619
 20
7791.255615234399
 30
0.0
 11
5528.7434234619
 21
7791.722412109399
 31
0.0
  0
LINE
  5
511
330
1FF
100
AcDbEntity
  8
0
  6
Continuous
 62
     7
100
AcDbLine
 10
5529.2100830078
 20
7793.1223144531
 30
0.0
 11
5529.2100830078
 21
7792.655517578101
 31
0.0
  0
LINE
  5
512
330
1FF
100
AcDbEntity
  8
0
  6
Continuous
 62
     7
100
AcDbLine
 10
5529.2100830078
 20
7791.722412109399
 30
0.0
 11
5529.2100830078
 21
7791.255615234399
 31
0.0
  0
LINE
  5
513
330
1FF
100
AcDbEntity
  8
0
  6
Continuous
 62
     7
100
AcDbLine
 10
5529.6767578125
 20
7797.322021484399
 30
0.0
 11
5529.6767578125
 21
7795.6887207031
 31
0.0
  0
LINE
  5
514
330
1FF
100
AcDbEntity
  8
0
  6
Continuous
 62
     7
100
AcDbLine
 10
5531.076751709
 20
7797.322021484399
 30
0.0
 11
5531.076751709
 21
7795.6887207031
 31
0.0
  0
LINE
  5
517
330
1FF
100
AcDbEntity
  8
0
  6
Continuous
 62
     7
100
AcDbLine
 10
5538.983421325699
 20
7794.522216796899
 30
0.0
 11
5538.983421325699
 21
7792.8889160156
 31
0.0
  0
LINE
  5
519
330
1FF
100
AcDbEntity
  8
0
  6
Continuous
 62
     7
100
AcDbLine
 10
5540.4167556763
 20
7795.6887207031
 30
0.0
 11
5540.4167556763
 21
7797.7888183594
 31
0.0
  0
LINE
  5
51B
330
1FF
100
AcDbEntity
  8
0
  6
Continuous
 62
     7
100
AcDbLine
 10
5540.850090026899
 20
7792.8889160156
 30
0.0
 11
5540.850090026899
 21
7791.722412109399
 31
0.0
  0
LINE
  5
51E
330
1FF
100
AcDbEntity
  8
0
  6
Continuous
 62
     7
100
AcDbLine
 10
5542.5634231567
 20
7794.0554199219
 30
0.0
 11
5542.5634231567
 21
7791.722412109399
 31
0.0
  0
LINE
  5
520
330
1FF
100
AcDbEntity
  8
0
  6
Continuous
 62
     7
100
AcDbLine
 10
5543.0634231567
 20
7796.1555175781
 30
0.0
 11
5543.0634231567
 21
7797.322021484399
 31
0.0
  0
LINE
  5
523
330
1FF
100
AcDbEntity
  8
0
  6
Continuous
 62
     7
100
AcDbLine
 10
5544.430091857901
 20
7791.722412109399
 30
0.0
 11
5544.430091857901
 21
7794.0554199219
 31
0.0
  0
LINE
  5
524
330
1FF
100
AcDbEntity
  8
0
  6
Continuous
 62
     7
100
AcDbLine
 10
5544.9300918579
 20
7797.322021484399
 30
0.0
 11
5544.9300918579
 21
7796.855224609399
 31
0.0
  0
LINE
  5
528
330
1FF
100
AcDbEntity
  8
0
  6
Continuous
 62
     7
100
AcDbLine
 10
5546.1434249878
 20
7792.655517578101
 30
0.0
 11
5546.1434249878
 21
7793.1223144531
 31
0.0
  0
LINE
  5
529
330
1FF
100
AcDbEntity
  8
0
  6
Continuous
 62
     7
100
AcDbLine
 10
5546.1434249878
 20
7791.255615234399
 30
0.0
 11
5546.1434249878
 21
7791.722412109399
 31
0.0
  0
LINE
  5
52A
330
1FF
100
AcDbEntity
  8
0
  6
Continuous
 62
     7
100
AcDbLine
 10
5546.176757812499
 20
7797.7888183594
 30
0.0
 11
5546.176757812499
 21
7796.1555175781
 31
0.0
  0
LINE
  5
52D
330
1FF
100
AcDbEntity
  8
0
  6
Continuous
 62
     7
100
AcDbLine
 10
5546.6100921631
 20
7793.1223144531
 30
0.0
 11
5546.6100921631
 21
7792.655517578101
 31
0.0
  0
LINE
  5
52E
330
1FF
100
AcDbEntity
  8
0
  6
Continuous
 62
     7
100
AcDbLine
 10
5546.6100921631
 20
7791.722412109399
 30
0.0
 11
5546.6100921631
 21
7791.255615234399
 31
0.0
  0
LINE
  5
52F
330
1FF
100
AcDbEntity
  8
DEFAULT_1
  6
CENTER
 62
     7
100
AcDbLine
 10
5547.2281188965
 20
2826.1376953125
 30
0.0
 11
5547.2281188965
 21
2698.9865722656
 31
0.0
  0
LINE
  5
530
330
1FF
100
AcDbEntity
  8
DEFAULT_1
  6
CENTER
 62
     7
100
AcDbLine
 10
5547.2281188965
 20
8341.226806640602
 30
0.0
 11
5547.2281188965
 21
8360.900634765602
 31
0.0
  0
LINE
  5
531
330
1FF
100
AcDbEntity
  8
DEFAULT_1
  6
CENTER
 62
     7
100
AcDbLine
 10
5547.2281188965
 20
8375.114013671899
 30
0.0
 11
5547.2281188965
 21
8666.745361328102
 31
0.0
  0
LINE
  5
532
330
1FF
100
AcDbEntity
  8
DEFAULT_1
  6
CENTER
 62
     7
100
AcDbLine
 10
5547.2281188965
 20
9151.114990234399
 30
0.0
 11
5547.2281188965
 21
9510.5300292969
 31
0.0
  0
LINE
  5
533
330
1FF
100
AcDbEntity
  8
DEFAULT_1
  6
CENTER
 62
     7
100
AcDbLine
 10
5547.2281188965
 20
9525.299072265601
 30
0.0
 11
5547.2281188965
 21
9537.699462890602
 31
0.0
  0
LINE
  5
534
330
1FF
100
AcDbEntity
  8
0
  6
Continuous
 62
     7
100
AcDbLine
 10
5547.5767593384
 20
7796.621826171899
 30
0.0
 11
5547.5767593384
 21
7797.088623046899
 31
0.0
  0
LINE
  5
535
330
1FF
100
AcDbEntity
  8
0
  6
Continuous
 62
     7
100
AcDbLine
 10
5548.976760864301
 20
7796.1555175781
 30
0.0
 11
5548.976760864301
 21
7797.7888183594
 31
0.0
  0
LINE
  5
537
330
1FF
100
AcDbEntity
  8
0
  6
Continuous
 62
     7
100
AcDbLine
 10
5550.656761169399
 20
7794.522216796899
 30
0.0
 11
5550.656761169399
 21
7791.255615234399
 31
0.0
  0
LINE
  5
538
330
1FF
100
AcDbEntity
  8
0
  6
Continuous
 62
     7
100
AcDbLine
 10
5305.1855773926
 20
6309.564453125
 30
0.0
 11
5310.5128173828
 21
6448.523193359399
 31
0.0
  0
LINE
  5
539
330
1FF
100
AcDbEntity
  8
0
  6
Continuous
 62
     7
100
AcDbLine
 10
5790.9228057861
 20
6022.3718261719
 30
0.0
 11
5832.1081848145
 21
6226.1545410156
 31
0.0
  0
LINE
  5
53A
330
1FF
100
AcDbEntity
  8
0
  6
Continuous
 62
     7
100
AcDbLine
 10
5812.726852417
 20
5900.6372070313
 30
0.0
 11
5912.2053833008
 21
6066.2546386719
 31
0.0
  0
LINE
  5
53B
330
1FF
100
AcDbEntity
  8
0
  6
Continuous
 62
     7
100
AcDbLine
 10
670.6508789062
 20
3389.4372558594
 30
0.0
 11
677.6806640624999
 21
3391.9511413574
 31
0.0
  0
LINE
  5
53C
330
1FF
100
AcDbEntity
  8
0
  6
Continuous
 62
     7
100
AcDbLine
 10
670.6459960936999
 20
3389.4536590576
 30
0.0
 11
677.6787109375
 21
3391.9557189941
 31
0.0
  0
LINE
  5
53D
330
1FF
100
AcDbEntity
  8
0
  6
Continuous
 62
     7
100
AcDbLine
 10
7380.621215820301
 20
5043.411010742199
 30
0.0
 11
7463.893432617199
 21
5065.576293945301
 31
0.0
  0
LINE
  5
53E
330
1FF
100
AcDbEntity
  8
0
  6
Continuous
 62
     7
100
AcDbLine
 10
7416.0388183594
 20
4965.852905273401
 30
0.0
 11
7351.3327636719
 21
4950.9385986328
 31
0.0
  0
LINE
  5
53F
330
1FF
100
AcDbEntity
  8
0
  6
Continuous
 62
     7
100
AcDbLine
 10
7317.4921875
 20
5029.5522460938
 30
0.0
 11
7380.621215820301
 21
5043.411010742199
 31
0.0
  0
LINE
  5
540
330
1FF
100
AcDbEntity
  8
0
  6
Continuous
 62
     7
100
AcDbLine
 10
655.8911132813
 20
3463.9436340332
 30
0.0
 11
641.3134765625
 21
3460.9262084961
 31
0.0
  0
LINE
  5
541
330
1FF
100
AcDbEntity
  8
0
  6
Continuous
 62
     7
100
AcDbLine
 10
641.3120117188
 20
3460.929260253901
 30
0.0
 11
655.8911132813
 21
3463.9436340332
 31
0.0
  0
LINE
  5
542
330
1FF
100
AcDbEntity
  8
0
  6
Continuous
 62
     7
100
AcDbLine
 10
7351.3327636719
 20
4950.9385986328
 30
0.0
 11
7286.1605224609
 21
4938.2150878906
 31
0.0
  0
LINE
  5
543
330
1FF
100
AcDbEntity
  8
0
  6
Continuous
 62
     7
100
AcDbLine
 10
7253.9370117188
 20
5017.799926757801
 30
0.0
 11
7317.4921875
 21
5029.5522460938
 31
0.0
  0
LINE
  5
544
330
1FF
100
AcDbEntity
  8
0
  6
Continuous
 62
     7
100
AcDbLine
 10
7286.1605224609
 20
4938.2150878906
 30
0.0
 11
7220.630126953101
 21
4927.487670898401
 31
0.0
  0
LINE
  5
545
330
1FF
100
AcDbEntity
  8
0
  6
Continuous
 62
     7
100
AcDbLine
 10
7125.9500732422
 20
4999.74609375
 30
0.0
 11
7253.9370117188
 21
5017.799926757801
 31
0.0
  0
LINE
  5
546
330
1FF
100
AcDbEntity
  8
0
  6
Continuous
 62
     7
100
AcDbLine
 10
7220.630126953101
 20
4927.487670898401
 30
0.0
 11
7154.830078125001
 21
4918.5635986328
 31
0.0
  0
LINE
  5
547
330
1FF
100
AcDbEntity
  8
0
  6
Continuous
 62
     7
100
AcDbLine
 10
7154.830078125001
 20
4918.5635986328
 30
0.0
 11
7066.796386718801
 21
4909.1481933594
 31
0.0
  0
LINE
  5
548
330
1FF
100
AcDbEntity
  8
0
  6
Continuous
 62
     7
100
AcDbLine
 10
7040.2064208984
 20
4991.1264648438
 30
0.0
 11
7125.9500732422
 21
4999.74609375
 31
0.0
  0
LINE
  5
549
330
1FF
100
AcDbEntity
  8
0
  6
Continuous
 62
     7
100
AcDbLine
 10
7066.796386718801
 20
4909.1481933594
 30
0.0
 11
6978.5349121094
 21
4902.1828613281
 31
0.0
  0
LINE
  5
54A
330
1FF
100
AcDbEntity
  8
0
  6
Continuous
 62
     7
100
AcDbLine
 10
6978.5349121094
 20
4902.1828613281
 30
0.0
 11
6890.1350097656
 21
4897.263427734401
 31
0.0
  0
LINE
  5
54B
330
1FF
100
AcDbEntity
  8
0
  6
Continuous
 62
     7
100
AcDbLine
 10
6890.1350097656
 20
4897.263427734401
 30
0.0
 11
6801.658447265601
 21
4894.003051757801
 31
0.0
  0
LINE
  5
54C
330
1FF
100
AcDbEntity
  8
0
  6
Continuous
 62
     7
100
AcDbLine
 10
778.2744140624999
 20
4648.4873046875
 30
0.0
 11
1236.1225585938
 21
4648.4873046875
 31
0.0
  0
LINE
  5
54D
330
1FF
100
AcDbEntity
  8
0
  6
Continuous
 62
     7
100
AcDbLine
 10
9762.253417968802
 20
4648.4873046875
 30
0.0
 11
10220.1015625
 21
4648.4873046875
 31
0.0
  0
LINE
  5
54E
330
1FF
100
AcDbEntity
  8
0
  6
Continuous
 62
     7
100
AcDbLine
 10
9762.253417968802
 20
4651.0034179688
 30
0.0
 11
10220.1015625
 21
4651.0034179688
 31
0.0
  0
LINE
  5
54F
330
1FF
100
AcDbEntity
  8
0
  6
Continuous
 62
     7
100
AcDbLine
 10
1220.37109375
 20
4655.8251953125
 30
0.0
 11
1260.5263671875
 21
4655.8251953125
 31
0.0
  0
LINE
  5
550
330
1FF
100
AcDbEntity
  8
0
  6
Continuous
 62
     7
100
AcDbLine
 10
4587.2315673828
 20
4655.8251953125
 30
0.0
 11
4590.3509521484
 21
4655.8251953125
 31
0.0
  0
LINE
  5
551
330
1FF
100
AcDbEntity
  8
0
  6
Continuous
 62
     7
100
AcDbLine
 10
9737.849609375
 20
4655.8251953125
 30
0.0
 11
9778.004882812501
 21
4655.8251953125
 31
0.0
  0
LINE
  5
552
330
1FF
100
AcDbEntity
  8
0
  6
Continuous
 62
     7
100
AcDbLine
 10
1249.2817382812
 20
4664.727172851599
 30
0.0
 11
1813.5988769531
 21
4664.727172851599
 31
0.0
  0
LINE
  5
553
330
1FF
100
AcDbEntity
  8
0
  6
Continuous
 62
     7
100
AcDbLine
 10
9184.777099609398
 20
4664.727172851599
 30
0.0
 11
9737.853515624999
 21
4664.727172851599
 31
0.0
  0
LINE
  5
554
330
1FF
100
AcDbEntity
  8
0
  6
Continuous
 62
     7
100
AcDbLine
 10
778.2744140624999
 20
4669.1281738281
 30
0.0
 11
1220.37109375
 21
4669.1281738281
 31
0.0
  0
LINE
  5
555
330
1FF
100
AcDbEntity
  8
0
  6
Continuous
 62
     7
100
AcDbLine
 10
1220.37109375
 20
4669.5848388672
 30
0.0
 11
1236.1225585938
 21
4669.5848388672
 31
0.0
  0
LINE
  5
556
330
1FF
100
AcDbEntity
  8
0
  6
Continuous
 62
     7
100
AcDbLine
 10
778.2744140624999
 20
4670.233276367199
 30
0.0
 11
1236.1225585938
 21
4670.233276367199
 31
0.0
  0
LINE
  5
557
330
1FF
100
AcDbEntity
  8
0
  6
Continuous
 62
     7
100
AcDbLine
 10
1249.2817382812
 20
4718.567016601599
 30
0.0
 11
1813.5988769531
 21
4718.567016601599
 31
0.0
  0
LINE
  5
558
330
1FF
100
AcDbEntity
  8
0
  6
Continuous
 62
     7
100
AcDbLine
 10
9184.777099609398
 20
4718.567016601599
 30
0.0
 11
9737.853271484398
 21
4718.567016601599
 31
0.0
  0
LINE
  5
559
330
1FF
100
AcDbEntity
  8
0
  6
Continuous
 62
     7
100
AcDbLine
 10
10283.1909179688
 20
2354.1829833984
 30
0.0
 11
10517.5
 21
2244.1201171875
 31
0.0
  0
LINE
  5
55A
330
1FF
100
AcDbEntity
  8
0
  6
Continuous
 62
     7
100
AcDbLine
 10
10559.654296875
 20
2224.3190917969
 30
0.0
 11
10577.6713867188
 21
2215.8557128906
 31
0.0
  0
LINE
  5
573
330
1FF
100
AcDbEntity
  8
0
  6
Continuous
 62
     7
100
AcDbLine
 10
4522.126831054699
 20
6302.7001953125
 30
0.0
 11
3992.5661621094
 21
7154.3449707031
 31
0.0
  0
LINE
  5
574
330
1FF
100
AcDbEntity
  8
0
  6
Continuous
 62
     7
100
AcDbLine
 10
5953.0066223145
 20
2687.7942504883
 30
0.0
 11
5927.508056640601
 21
3650.588378906201
 31
0.0
  0
LINE
  5
575
330
1FF
100
AcDbEntity
  8
0
  6
Continuous
 62
     7
100
AcDbLine
 10
5927.612182617199
 20
2699.4668579102
 30
0.0
 11
5850.1070709229
 21
5838.8825683594
 31
0.0
  0
LINE
  5
576
330
1FF
100
AcDbEntity
  8
0
  6
Continuous
 62
     7
100
AcDbLine
 10
5932.9146118164
 20
2846.1713256836
 30
0.0
 11
5913.5969848633
 21
5147.484008789099
 31
0.0
  0
LINE
  5
577
330
1FF
100
AcDbEntity
  8
0
  6
Continuous
 62
     7
100
AcDbLine
 10
5596.1321563721
 20
8342.865966796898
 30
0.0
 11
5596.1321563721
 21
8359.2609863281
 31
0.0
  0
LINE
  5
578
330
1FF
100
AcDbEntity
  8
0
  6
Continuous
 62
     7
100
AcDbLine
 10
5596.1321563721
 20
8399.416748046899
 30
0.0
 11
5596.1321563721
 21
8642.438232421898
 31
0.0
  0
LINE
  5
579
330
1FF
100
AcDbEntity
  8
0
  6
Continuous
 62
     7
100
AcDbLine
 10
5596.1321563721
 20
9181.066162109399
 30
0.0
 11
5596.1321563721
 21
9480.5788574219
 31
0.0
  0
LINE
  5
57A
330
1FF
100
AcDbEntity
  8
0
  6
Continuous
 62
     7
100
AcDbLine
 10
5596.1321563721
 20
9526.332275390601
 30
0.0
 11
5596.1321563721
 21
9536.666259765601
 31
0.0
  0
LINE
  5
57B
330
1FF
100
AcDbEntity
  8
0
  6
Continuous
 62
     7
100
AcDbLine
 10
5781.9239349365
 20
8399.416748046899
 30
0.0
 11
5781.9239349365
 21
8420.299560546899
 31
0.0
  0
LINE
  5
57C
330
1FF
100
AcDbEntity
  8
0
  6
Continuous
 62
     7
100
AcDbLine
 10
5781.9239349365
 20
9454.090087890602
 30
0.0
 11
5781.9239349365
 21
9480.5788574219
 31
0.0
  0
LINE
  5
57D
330
1FF
100
AcDbEntity
  8
0
  6
Continuous
 62
     7
100
AcDbLine
 10
5785.9301300049
 20
8399.416748046899
 30
0.0
 11
5785.9301300049
 21
8420.264892578101
 31
0.0
  0
LINE
  5
57E
330
1FF
100
AcDbEntity
  8
0
  6
Continuous
 62
     7
100
AcDbLine
 10
5793.1898803711
 20
8399.416748046899
 30
0.0
 11
5793.189117431601
 21
8420.202392578103
 31
0.0
  0
LINE
  5
57F
330
1FF
100
AcDbEntity
  8
0
  6
Continuous
 62
     7
100
AcDbLine
 10
5799.063369751
 20
8420.151123046899
 30
0.0
 11
5799.063369751
 21
8674.927978515603
 31
0.0
  0
LINE
  5
580
330
1FF
100
AcDbEntity
  8
0
  6
Continuous
 62
     7
100
AcDbLine
 10
5799.063369751
 20
9148.623291015601
 30
0.0
 11
5799.063369751
 21
9454.090087890602
 31
0.0
  0
LINE
  5
581
330
1FF
100
AcDbEntity
  8
0
  6
Continuous
 62
     7
100
AcDbLine
 10
5801.2411804199
 20
8399.416748046899
 30
0.0
 11
5801.2411804199
 21
8683.925537109399
 31
0.0
  0
LINE
  5
582
330
1FF
100
AcDbEntity
  8
0
  6
Continuous
 62
     7
100
AcDbLine
 10
5801.2411804199
 20
9139.588623046899
 30
0.0
 11
5801.2411804199
 21
9480.5788574219
 31
0.0
  0
LINE
  5
583
330
1FF
100
AcDbEntity
  8
0
  6
Continuous
 62
     7
100
AcDbLine
 10
5927.612182617199
 20
9480.5788574219
 30
0.0
 11
5927.612182617199
 21
9526.308837890601
 31
0.0
  0
LINE
  5
584
330
1FF
100
AcDbEntity
  8
0
  6
Continuous
 62
     7
100
AcDbLine
 10
5932.914245605501
 20
8399.416748046899
 30
0.0
 11
5932.914245605501
 21
9523.148193359398
 31
0.0
  0
LINE
  5
585
330
1FF
100
AcDbEntity
  8
0
  6
Continuous
 62
     7
100
AcDbLine
 10
5498.3236999512
 20
2762.5619506836
 30
0.0
 11
5498.4316558838
 21
2766.169494628901
 31
0.0
  0
LINE
  5
586
330
1FF
100
AcDbEntity
  8
0
  6
Continuous
 62
     7
100
AcDbLine
 10
8053.3347167969
 20
8925.860595703101
 30
0.0
 11
8050.062500000001
 21
8920.251220703102
 31
0.0
  0
LINE
  5
587
330
1FF
100
AcDbEntity
  8
0
  6
Continuous
 62
     7
100
AcDbLine
 10
8053.2980957031
 20
8925.787841796898
 30
0.0
 11
8050.002929687499
 21
8920.176513671899
 31
0.0
  0
LINE
  5
5A3
330
1FF
100
AcDbEntity
  8
0
  6
Continuous
 62
     7
100
AcDbLine
 10
420.7045898437
 20
2215.8557128906
 30
0.0
 11
438.7216796875
 21
2224.3190917969
 31
0.0
  0
LINE
  5
5A4
330
1FF
100
AcDbEntity
  8
0
  6
Continuous
 62
     7
100
AcDbLine
 10
708.0415039062
 20
2602.4877319336
 30
0.0
 11
977.3618164063
 21
2708.893737793
 31
0.0
  0
LINE
  5
5A5
330
1FF
100
AcDbEntity
  8
0
  6
Continuous
 62
     7
100
AcDbLine
 10
7463.893432617199
 20
5065.576293945301
 30
0.0
 11
7545.7559814453
 21
5092.4787597656
 31
0.0
  0
LINE
  5
5A6
330
1FF
100
AcDbEntity
  8
0
  6
Continuous
 62
     7
100
AcDbLine
 10
6954.2658691406
 20
4984.7615966797
 30
0.0
 11
7040.2064208984
 21
4991.1264648438
 31
0.0
  0
LINE
  5
5A7
330
1FF
100
AcDbEntity
  8
0
  6
Continuous
 62
     7
100
AcDbLine
 10
6782.078857421899
 20
4977.352661132801
 30
0.0
 11
6954.2658691406
 21
4984.7615966797
 31
0.0
  0
LINE
  5
5A8
330
1FF
100
AcDbEntity
  8
0
  6
Continuous
 62
     7
100
AcDbLine
 10
6801.658447265601
 20
4894.003051757801
 30
0.0
 11
6683.6340332031
 21
4891.6147460938
 31
0.0
  0
LINE
  5
5A9
330
1FF
100
AcDbEntity
  8
0
  6
Continuous
 62
     7
100
AcDbLine
 10
6667.1953735352
 20
4975.2729492188
 30
0.0
 11
6782.078857421899
 21
4977.352661132801
 31
0.0
  0
LINE
  5
5AA
330
1FF
100
AcDbEntity
  8
0
  6
Continuous
 62
     7
100
AcDbLine
 10
5915.8571929932
 20
4878.2475585938
 30
0.0
 11
6093.6506958008
 21
4879.740234375
 31
0.0
  0
LINE
  5
5AB
330
1FF
100
AcDbEntity
  8
DEFAULT_1
  6
CENTER
 62
     7
100
AcDbLine
 10
6111.1704711914
 20
4948.8461914062
 30
0.0
 11
5897.442504882801
 21
4947.0521240234
 31
0.0
  0
LINE
  5
5AC
330
1FF
100
AcDbEntity
  8
0
  6
Continuous
 62
     7
100
AcDbLine
 10
5914.699432373001
 20
5016.1557617188
 30
0.0
 11
6092.493316650401
 21
5017.6480712891
 31
0.0
  0
LINE
  5
5AD
330
1FF
100
AcDbEntity
  8
0
  6
Continuous
 62
     7
100
AcDbLine
 10
5890.391418456999
 20
5147.2890625
 30
0.0
 11
5913.5969848633
 21
5147.484008789099
 31
0.0
  0
LINE
  5
5AE
330
1FF
100
AcDbEntity
  8
0
  6
Continuous
 62
     7
100
AcDbLine
 10
6683.6340332031
 20
4891.6147460938
 30
0.0
 11
6565.587524414102
 21
4890.872314453099
 31
0.0
  0
LINE
  5
5AF
330
1FF
100
AcDbEntity
  8
0
  6
Continuous
 62
     7
100
AcDbLine
 10
6552.2944335938
 20
4974.737670898401
 30
0.0
 11
6667.1953735352
 21
4975.2729492188
 31
0.0
  0
LINE
  5
5B0
330
1FF
100
AcDbEntity
  8
0
  6
Continuous
 62
     7
100
AcDbLine
 10
77.33154296880001
 20
4897.000244140599
 30
0.0
 11
93.478515625
 21
4897.000244140599
 31
0.0
  0
LINE
  5
5B1
330
1FF
100
AcDbEntity
  8
0
  6
Continuous
 62
     7
100
AcDbLine
 10
1260.5263671875
 20
4897.000244140599
 30
0.0
 11
1271.1318359375
 21
4897.000244140599
 31
0.0
  0
LINE
  5
5B2
330
1FF
100
AcDbEntity
  8
0
  6
Continuous
 62
     7
100
AcDbLine
 10
9727.244140625
 20
4897.000244140599
 30
0.0
 11
9737.849609375
 21
4897.000244140599
 31
0.0
  0
LINE
  5
5B3
330
1FF
100
AcDbEntity
  8
0
  6
Continuous
 62
     7
100
AcDbLine
 10
10904.923828125
 20
4897.000244140599
 30
0.0
 11
10921.0444335938
 21
4897.000244140599
 31
0.0
  0
LINE
  5
5B4
330
1FF
100
AcDbEntity
  8
DEFAULT_1
  6
CENTER
 62
     7
100
AcDbLine
 10
5068.5160522461
 20
4951.4658203125
 30
0.0
 11
4926.9057006836
 21
4951.4658203125
 31
0.0
  0
LINE
  5
5B5
330
1FF
100
AcDbEntity
  8
DEFAULT_1
  6
CENTER
 62
     7
100
AcDbLine
 10
1272.1948242188
 20
4951.4658203125
 30
0.0
 11
1271.1318359375
 21
4951.4658203125
 31
0.0
  0
LINE
  5
5B6
330
1FF
100
AcDbEntity
  8
DEFAULT_1
  6
CENTER
 62
     7
100
AcDbLine
 10
1260.5263671875
 20
4951.4658203125
 30
0.0
 11
1259.4384765625
 21
4951.4658203125
 31
0.0
  0
LINE
  5
5B7
330
1FF
100
AcDbEntity
  8
DEFAULT_1
  6
CENTER
 62
     7
100
AcDbLine
 10
95.09570312500001
 20
4951.4658203125
 30
0.0
 11
93.478515625
 21
4951.4658203125
 31
0.0
  0
LINE
  5
5B8
330
1FF
100
AcDbEntity
  8
DEFAULT_1
  6
CENTER
 62
     7
100
AcDbLine
 10
77.33154296880001
 20
4951.4658203125
 30
0.0
 11
75.689453125
 21
4951.4658203125
 31
0.0
  0
LINE
  5
5B9
330
1FF
100
AcDbEntity
  8
0
  6
Continuous
 62
     7
100
AcDbLine
 10
77.33154296880001
 20
4951.4658203125
 30
0.0
 11
93.478515625
 21
4951.4658203125
 31
0.0
  0
LINE
  5
5BA
330
1FF
100
AcDbEntity
  8
0
  6
Continuous
 62
     7
100
AcDbLine
 10
1260.5263671875
 20
4951.4658203125
 30
0.0
 11
1271.1318359375
 21
4951.4658203125
 31
0.0
  0
LINE
  5
5BB
330
1FF
100
AcDbEntity
  8
DEFAULT_1
  6
CENTER
 62
     7
100
AcDbLine
 10
9726.183837890602
 20
4951.4658203125
 30
0.0
 11
9727.244140625
 21
4951.4658203125
 31
0.0
  0
LINE
  5
5BC
330
1FF
100
AcDbEntity
  8
0
  6
Continuous
 62
     7
100
AcDbLine
 10
9727.244140625
 20
4951.4658203125
 30
0.0
 11
9737.849609375
 21
4951.4658203125
 31
0.0
  0
LINE
  5
5BD
330
1FF
100
AcDbEntity
  8
DEFAULT_1
  6
CENTER
 62
     7
100
AcDbLine
 10
9737.849609375
 20
4951.4658203125
 30
0.0
 11
9738.91015625
 21
4951.4658203125
 31
0.0
  0
LINE
  5
5BE
330
1FF
100
AcDbEntity
  8
DEFAULT_1
  6
CENTER
 62
     7
100
AcDbLine
 10
10903.3076171875
 20
4951.4658203125
 30
0.0
 11
10904.919921875
 21
4951.4658203125
 31
0.0
  0
LINE
  5
5BF
330
1FF
100
AcDbEntity
  8
0
  6
Continuous
 62
     7
100
AcDbLine
 10
10904.919921875
 20
4951.4658203125
 30
0.0
 11
10921.0444335938
 21
4951.4658203125
 31
0.0
  0
LINE
  5
5C0
330
1FF
100
AcDbEntity
  8
DEFAULT_1
  6
CENTER
 62
     7
100
AcDbLine
 10
10921.0444335938
 20
4951.4658203125
 30
0.0
 11
10922.6567382813
 21
4951.4658203125
 31
0.0
  0
LINE
  5
5C1
330
1FF
100
AcDbEntity
  8
0
  6
Continuous
 62
     7
100
AcDbLine
 10
9762.257324218801
 20
4970.9992675781
 30
0.0
 11
9778.004882812501
 21
4970.9992675781
 31
0.0
  0
LINE
  5
5C2
330
1FF
100
AcDbEntity
  8
0
  6
Continuous
 62
     7
100
AcDbLine
 10
77.33154296880001
 20
5005.931274414099
 30
0.0
 11
93.478515625
 21
5005.931274414099
 31
0.0
  0
LINE
  5
5C3
330
1FF
100
AcDbEntity
  8
0
  6
Continuous
 62
     7
100
AcDbLine
 10
1260.5263671875
 20
5005.931274414099
 30
0.0
 11
1271.1318359375
 21
5005.931274414099
 31
0.0
  0
LINE
  5
5C4
330
1FF
100
AcDbEntity
  8
0
  6
Continuous
 62
     7
100
AcDbLine
 10
9727.244140625
 20
5005.931274414099
 30
0.0
 11
9737.849609375
 21
5005.931274414099
 31
0.0
  0
LINE
  5
5C5
330
1FF
100
AcDbEntity
  8
0
  6
Continuous
 62
     7
100
AcDbLine
 10
10904.923828125
 20
5005.931274414099
 30
0.0
 11
10921.0444335938
 21
5005.931274414099
 31
0.0
  0
LINE
  5
5C6
330
1FF
100
AcDbEntity
  8
0
  6
Continuous
 62
     7
100
AcDbLine
 10
9762.257324218801
 20
5128.183471679699
 30
0.0
 11
10901.736328125
 21
5128.183471679699
 31
0.0
  0
LINE
  5
5C7
330
1FF
100
AcDbEntity
  8
0
  6
Continuous
 62
     7
100
AcDbLine
 10
9778.004882812501
 20
5146.3784179688
 30
0.0
 11
9865.792480468801
 21
5146.3784179688
 31
0.0
  0
LINE
  5
5C8
330
1FF
100
AcDbEntity
  8
0
  6
Continuous
 62
     7
100
AcDbLine
 10
10032.0444335938
 20
5146.3784179688
 30
0.0
 11
10155.7270507813
 21
5146.3784179688
 31
0.0
  0
LINE
  5
5C9
330
1FF
100
AcDbEntity
  8
0
  6
Continuous
 62
     7
100
AcDbLine
 10
10204.76171875
 20
5146.3784179688
 30
0.0
 11
10859.1669921875
 21
5146.3784179688
 31
0.0
  0
LINE
  5
5CA
330
1FF
100
AcDbEntity
  8
0
  6
Continuous
 62
     7
100
AcDbLine
 10
5867.180892944301
 20
5147.2890625
 30
0.0
 11
5913.598510742199
 21
5147.2890625
 31
0.0
  0
LINE
  5
5CB
330
1FF
100
AcDbEntity
  8
0
  6
Continuous
 62
     7
100
AcDbLine
 10
96.63964843750001
 20
5147.484008789099
 30
0.0
 11
773.9506835938
 21
5147.484008789099
 31
0.0
  0
LINE
  5
5CC
330
1FF
100
AcDbEntity
  8
0
  6
Continuous
 62
     7
100
AcDbLine
 10
857.9028320313
 20
5147.484008789099
 30
0.0
 11
1236.1206054688
 21
5147.484008789099
 31
0.0
  0
LINE
  5
5CD
330
1FF
100
AcDbEntity
  8
0
  6
Continuous
 62
     7
100
AcDbLine
 10
9778.011230468802
 20
5147.484008789099
 30
0.0
 11
9865.719238281201
 21
5147.484008789099
 31
0.0
  0
LINE
  5
5CE
330
1FF
100
AcDbEntity
  8
0
  6
Continuous
 62
     7
100
AcDbLine
 10
10032.1123046875
 20
5147.484008789099
 30
0.0
 11
10155.724609375
 21
5147.484008789099
 31
0.0
  0
LINE
  5
5CF
330
1FF
100
AcDbEntity
  8
0
  6
Continuous
 62
     7
100
AcDbLine
 10
10204.7592773438
 20
5147.484008789099
 30
0.0
 11
10859.1704101562
 21
5147.484008789099
 31
0.0
  0
LINE
  5
5D0
330
1FF
100
AcDbEntity
  8
0
  6
Continuous
 62
     7
100
AcDbLine
 10
6565.587524414102
 20
4890.872314453099
 30
0.0
 11
6408.1931152344
 21
4891.9915771484
 31
0.0
  0
LINE
  5
5D1
330
1FF
100
AcDbEntity
  8
0
  6
Continuous
 62
     7
100
AcDbLine
 10
6399.0969238281
 20
4976.0061035156
 30
0.0
 11
6552.2944335938
 21
4974.737670898401
 31
0.0
  0
LINE
  5
5D2
330
1FF
100
AcDbEntity
  8
0
  6
Continuous
 62
     7
100
AcDbLine
 10
4599.297729492199
 20
5128.183471679699
 30
0.0
 11
4638.9658813477
 21
5127.425537109401
 31
0.0
  0
LINE
  5
5D3
330
1FF
100
AcDbEntity
  8
0
  6
Continuous
 62
     7
100
AcDbLine
 10
6408.1931152344
 20
4891.9915771484
 30
0.0
 11
6093.485534668001
 21
4899.426025390599
 31
0.0
  0
LINE
  5
5D4
330
1FF
100
AcDbEntity
  8
0
  6
Continuous
 62
     7
100
AcDbLine
 10
6092.780944824201
 20
4983.3680419922
 30
0.0
 11
6399.0969238281
 21
4976.0061035156
 31
0.0
  0
LINE
  5
5D5
330
1FF
100
AcDbEntity
  8
0
  6
Continuous
 62
     7
100
AcDbLine
 10
838.419921875
 20
6229.2680664062
 30
0.0
 11
831.0590820313001
 21
6231.2021484375
 31
0.0
  0
LINE
  5
5D6
330
1FF
100
AcDbEntity
  8
0
  6
Continuous
 62
     7
100
AcDbLine
 10
793.4306640625
 20
6192.2746582031
 30
0.0
 11
800.7905273437
 21
6190.3276367187
 31
0.0
  0
LINE
  5
5D7
330
1FF
100
AcDbEntity
  8
0
  6
Continuous
 62
     7
100
AcDbLine
 10
838.4228515625
 20
6229.2619628906
 30
0.0
 11
831.0629882813
 21
6231.208984375
 31
0.0
  0
LINE
  5
5D8
330
1FF
100
AcDbEntity
  8
0
  6
Continuous
 62
     7
100
AcDbLine
 10
4708.0357055664
 20
6498.5903320312
 30
0.0
 11
4389.651000976599
 21
7016.8312988281
 31
0.0
  0
LINE
  5
5D9
330
1FF
100
AcDbEntity
  8
0
  6
Continuous
 62
     7
100
AcDbLine
 10
5194.4388122559
 20
6277.5437011719
 30
0.0
 11
5137.6730957031
 21
6401.4428710938
 31
0.0
  0
LINE
  5
5DA
330
1FF
100
AcDbEntity
  8
0
  6
Continuous
 62
     7
100
AcDbLine
 10
4585.7009277344
 20
8918.888916015601
 30
0.0
 11
4495.4102783203
 21
9206.226318359398
 31
0.0
  0
LINE
  5
5DB
330
1FF
100
AcDbEntity
  8
0
  6
Continuous
 62
     7
100
AcDbLine
 10
6093.072021484399
 20
8872.817626953102
 30
0.0
 11
6093.5034484863
 21
8849.838623046899
 31
0.0
  0
LINE
  5
5DC
330
1FF
100
AcDbEntity
  8
0
  6
Continuous
 62
     7
100
AcDbLine
 10
6093.6506958008
 20
4879.740234375
 30
0.0
 11
6092.493316650401
 21
5017.6480712891
 31
0.0
  0
LINE
  5
5DD
330
1FF
100
AcDbEntity
  8
0
  6
Continuous
 62
     7
100
AcDbLine
 10
6093.5034484863
 20
8849.838623046899
 30
0.0
 11
6093.5732421875
 21
8838.344482421899
 31
0.0
  0
LINE
  5
5DE
330
1FF
100
AcDbEntity
  8
0
  6
Continuous
 62
     7
100
AcDbLine
 10
6093.485534668001
 20
8803.860595703101
 30
0.0
 11
6093.348937988299
 21
8837.053466796898
 31
0.0
  0
LINE
  5
5DF
330
1FF
100
AcDbEntity
  8
0
  6
Continuous
 62
     7
100
AcDbLine
 10
6093.5732421875
 20
8838.344482421899
 30
0.0
 11
6093.6506958008
 21
8803.860595703101
 31
0.0
  0
LINE
  5
5E0
330
1FF
100
AcDbEntity
  8
0
  6
Continuous
 62
     7
100
AcDbLine
 10
6093.6506958008
 20
8803.860595703101
 30
0.0
 11
6093.614440918001
 21
8827.877197265602
 31
0.0
  0
LINE
  5
5E1
330
1FF
100
AcDbEntity
  8
0
  6
Continuous
 62
     7
100
AcDbLine
 10
5953.0066223145
 20
8359.2609863281
 30
0.0
 11
5953.0066223145
 21
8399.416748046899
 31
0.0
  0
LINE
  5
5E2
330
1FF
100
AcDbEntity
  8
0
  6
Continuous
 62
     7
100
AcDbLine
 10
5955.337402343801
 20
9047.300537109398
 30
0.0
 11
5955.337402343801
 21
9326.700439453102
 31
0.0
  0
LINE
  5
5E3
330
1FF
100
AcDbEntity
  8
0
  6
Continuous
 62
     7
100
AcDbLine
 10
6093.6506958008
 20
8803.860595703101
 30
0.0
 11
6093.5732421875
 21
8769.377197265601
 31
0.0
  0
LINE
  5
5E4
330
1FF
100
AcDbEntity
  8
0
  6
Continuous
 62
     7
100
AcDbLine
 10
6093.5732421875
 20
8769.377197265601
 30
0.0
 11
6093.5034484863
 21
8757.883056640601
 31
0.0
  0
LINE
  5
5E5
330
1FF
100
AcDbEntity
  8
0
  6
Continuous
 62
     7
100
AcDbLine
 10
6093.5034484863
 20
8757.883056640601
 30
0.0
 11
6093.072021484399
 21
8734.904052734398
 31
0.0
  0
LINE
  5
5E6
330
1FF
100
AcDbEntity
  8
0
  6
Continuous
 62
     7
100
AcDbLine
 10
8748.820312499999
 20
8784.075927734399
 30
0.0
 11
8743.5493164063
 21
8775.377197265601
 31
0.0
  0
LINE
  5
5E7
330
1FF
100
AcDbEntity
  8
0
  6
Continuous
 62
     7
100
AcDbLine
 10
8748.766113281199
 20
8783.961181640602
 30
0.0
 11
8743.4287109375
 21
8775.227294921899
 31
0.0
  0
LINE
  5
5E8
330
1FF
100
AcDbEntity
  8
0
  6
Continuous
 62
     7
100
AcDbLine
 10
7715.5751953125
 20
5169.0224609375
 30
0.0
 11
7761.864257812501
 21
5195.415649414099
 31
0.0
  0
LINE
  5
5E9
330
1FF
100
AcDbEntity
  8
0
  6
Continuous
 62
     7
100
AcDbLine
 10
7759.518310546899
 20
5097.4378662109
 30
0.0
 11
7713.767822265601
 21
5073.550537109401
 31
0.0
  0
LINE
  5
5EA
330
1FF
100
AcDbEntity
  8
0
  6
Continuous
 62
     7
100
AcDbLine
 10
7713.767822265601
 20
5073.550537109401
 30
0.0
 11
7759.518310546899
 21
5097.4382324219
 31
0.0
  0
LINE
  5
5EB
330
1FF
100
AcDbEntity
  8
0
  6
Continuous
 62
     7
100
AcDbLine
 10
7671.075317382801
 20
5145.942504882801
 30
0.0
 11
7715.5751953125
 21
5169.0224609375
 31
0.0
  0
LINE
  5
5EC
330
1FF
100
AcDbEntity
  8
0
  6
Continuous
 62
     7
100
AcDbLine
 10
7713.767822265601
 20
5073.550537109401
 30
0.0
 11
7667.125244140601
 21
5051.455078125
 31
0.0
  0
LINE
  5
5ED
330
1FF
100
AcDbEntity
  8
0
  6
Continuous
 62
     7
100
AcDbLine
 10
700.8984374999999
 20
1779.7156982422
 30
0.0
 11
995.37890625
 21
1918.04296875
 31
0.0
  0
LINE
  5
5EE
330
1FF
100
AcDbEntity
  8
0
  6
Continuous
 62
     7
100
AcDbLine
 10
7625.6857910156
 20
5124.666015625
 30
0.0
 11
7671.075317382801
 21
5145.942504882801
 31
0.0
  0
LINE
  5
5EF
330
1FF
100
AcDbEntity
  8
0
  6
Continuous
 62
     7
100
AcDbLine
 10
7667.125244140601
 20
5051.455078125
 30
0.0
 11
7585.217529296899
 21
5017.8636474609
 31
0.0
  0
LINE
  5
5F0
330
1FF
100
AcDbEntity
  8
0
  6
Continuous
 62
     7
100
AcDbLine
 10
7545.7559814453
 20
5092.4787597656
 30
0.0
 11
7625.6857910156
 21
5124.666015625
 31
0.0
  0
LINE
  5
5F1
330
1FF
100
AcDbEntity
  8
0
  6
Continuous
 62
     7
100
AcDbLine
 10
7585.217529296899
 20
5017.8636474609
 30
0.0
 11
7501.356811523399
 21
4989.491455078099
 31
0.0
  0
LINE
  5
5F2
330
1FF
100
AcDbEntity
  8
0
  6
Continuous
 62
     7
100
AcDbLine
 10
293.0869140625
 20
5285.9266357422
 30
0.0
 11
572.4873046875
 21
5285.9266357422
 31
0.0
  0
LINE
  5
5F3
330
1FF
100
AcDbEntity
  8
0
  6
Continuous
 62
     7
100
AcDbLine
 10
10425.888671875
 20
5285.9266357422
 30
0.0
 11
10705.2890625
 21
5285.9266357422
 31
0.0
  0
LINE
  5
5F4
330
1FF
100
AcDbEntity
  8
0
  6
Continuous
 62
     7
100
AcDbLine
 10
293.0869140625
 20
5302.034912109401
 30
0.0
 11
572.4873046875
 21
5302.034912109401
 31
0.0
  0
LINE
  5
5F5
330
1FF
100
AcDbEntity
  8
0
  6
Continuous
 62
     7
100
AcDbLine
 10
10425.888671875
 20
5341.8107910156
 30
0.0
 11
10705.2890625
 21
5341.8107910156
 31
0.0
  0
LINE
  5
5F6
330
1FF
100
AcDbEntity
  8
0
  6
Continuous
 62
     7
100
AcDbLine
 10
9865.719238281201
 20
5372.009765625
 30
0.0
 11
10032.0444335938
 21
5372.009765625
 31
0.0
  0
LINE
  5
5F7
330
1FF
100
AcDbEntity
  8
0
  6
Continuous
 62
     7
100
AcDbLine
 10
293.0869140625
 20
5378.2766113281
 30
0.0
 11
572.4873046875
 21
5378.2766113281
 31
0.0
  0
LINE
  5
5F8
330
1FF
100
AcDbEntity
  8
0
  6
Continuous
 62
     7
100
AcDbLine
 10
195.5122070312
 20
5393.612426757801
 30
0.0
 11
259.0122070313
 21
5393.612426757801
 31
0.0
  0
LINE
  5
5F9
330
1FF
100
AcDbEntity
  8
0
  6
Continuous
 62
     7
100
AcDbLine
 10
10739.3637695312
 20
5393.612426757801
 30
0.0
 11
10802.8637695313
 21
5393.612426757801
 31
0.0
  0
LINE
  5
5FA
330
1FF
100
AcDbEntity
  8
0
  6
Continuous
 62
     7
100
AcDbLine
 10
607.94921875
 20
5417.5935058594
 30
0.0
 11
671.44921875
 21
5417.5935058594
 31
0.0
  0
LINE
  5
5FB
330
1FF
100
AcDbEntity
  8
0
  6
Continuous
 62
     7
100
AcDbLine
 10
10326.9267578125
 20
5417.5935058594
 30
0.0
 11
10390.4267578125
 21
5417.5935058594
 31
0.0
  0
LINE
  5
5FC
330
1FF
100
AcDbEntity
  8
0
  6
Continuous
 62
     7
100
AcDbLine
 10
966.3315429686999
 20
5420.0979003906
 30
0.0
 11
1132.6567382812
 21
5420.0979003906
 31
0.0
  0
LINE
  5
5FD
330
1FF
100
AcDbEntity
  8
0
  6
Continuous
 62
     7
100
AcDbLine
 10
10425.888671875
 20
5437.789306640599
 30
0.0
 11
10705.2890625
 21
5437.789306640599
 31
0.0
  0
LINE
  5
5FE
330
1FF
100
AcDbEntity
  8
0
  6
Continuous
 62
     7
100
AcDbLine
 10
918.7104492188
 20
5492.4771728516
 30
0.0
 11
1151.7553710938
 21
5492.4771728516
 31
0.0
  0
LINE
  5
5FF
330
1FF
100
AcDbEntity
  8
0
  6
Continuous
 62
     7
100
AcDbLine
 10
9846.620605468801
 20
5492.4771728516
 30
0.0
 11
9865.7705078125
 21
5492.4771728516
 31
0.0
  0
LINE
  5
600
330
1FF
100
AcDbEntity
  8
0
  6
Continuous
 62
     7
100
AcDbLine
 10
10032.0444335938
 20
5492.4771728516
 30
0.0
 11
10079.6655273438
 21
5492.4771728516
 31
0.0
  0
LINE
  5
601
330
1FF
100
AcDbEntity
  8
0
  6
Continuous
 62
     7
100
AcDbLine
 10
9846.620605468801
 20
5507.922485351601
 30
0.0
 11
9865.763671875001
 21
5507.922485351601
 31
0.0
  0
LINE
  5
602
330
1FF
100
AcDbEntity
  8
0
  6
Continuous
 62
     7
100
AcDbLine
 10
10032.0444335938
 20
5507.922485351601
 30
0.0
 11
10079.6655273438
 21
5507.922485351601
 31
0.0
  0
LINE
  5
603
330
1FF
100
AcDbEntity
  8
0
  6
Continuous
 62
     7
100
AcDbLine
 10
293.0869140625
 20
5509.26953125
 30
0.0
 11
572.4873046875
 21
5509.26953125
 31
0.0
  0
LINE
  5
604
330
1FF
100
AcDbEntity
  8
0
  6
Continuous
 62
     7
100
AcDbLine
 10
293.0869140625
 20
5514.3674316406
 30
0.0
 11
572.4873046875
 21
5514.3674316406
 31
0.0
  0
LINE
  5
605
330
1FF
100
AcDbEntity
  8
0
  6
Continuous
 62
     7
100
AcDbLine
 10
918.7104492188
 20
5522.582763671899
 30
0.0
 11
1151.7553710938
 21
5522.582763671899
 31
0.0
  0
LINE
  5
606
330
1FF
100
AcDbEntity
  8
0
  6
Continuous
 62
     7
100
AcDbLine
 10
195.5122070312
 20
5529.392822265601
 30
0.0
 11
259.0122070313
 21
5529.392822265601
 31
0.0
  0
LINE
  5
607
330
1FF
100
AcDbEntity
  8
0
  6
Continuous
 62
     7
100
AcDbLine
 10
10739.3637695312
 20
5538.3070068359
 30
0.0
 11
10802.8637695313
 21
5538.3070068359
 31
0.0
  0
LINE
  5
608
330
1FF
100
AcDbEntity
  8
0
  6
Continuous
 62
     7
100
AcDbLine
 10
715.0590820311999
 20
5541.1142578125
 30
0.0
 11
765.8588867188
 21
5541.1142578125
 31
0.0
  0
LINE
  5
609
330
1FF
100
AcDbEntity
  8
0
  6
Continuous
 62
     7
100
AcDbLine
 10
10232.5170898438
 20
5541.1142578125
 30
0.0
 11
10283.3168945312
 21
5541.1142578125
 31
0.0
  0
LINE
  5
60A
330
1FF
100
AcDbEntity
  8
0
  6
Continuous
 62
     7
100
AcDbLine
 10
857.9028320313
 20
5542.4538574219
 30
0.0
 11
878.1083984374999
 21
5542.4538574219
 31
0.0
  0
LINE
  5
60B
330
1FF
100
AcDbEntity
  8
0
  6
Continuous
 62
     7
100
AcDbLine
 10
10120.267578125
 20
5542.4538574219
 30
0.0
 11
10171.0673828125
 21
5542.4538574219
 31
0.0
  0
LINE
  5
60C
330
1FF
100
AcDbEntity
  8
0
  6
Continuous
 62
     7
100
AcDbLine
 10
607.94921875
 20
5553.3742675781
 30
0.0
 11
671.44921875
 21
5553.3742675781
 31
0.0
  0
LINE
  5
60D
330
1FF
100
AcDbEntity
  8
0
  6
Continuous
 62
     7
100
AcDbLine
 10
9846.620605468801
 20
5558.353515625
 30
0.0
 11
9865.754882812501
 21
5558.353515625
 31
0.0
  0
LINE
  5
60E
330
1FF
100
AcDbEntity
  8
0
  6
Continuous
 62
     7
100
AcDbLine
 10
10032.0620117188
 20
5558.353515625
 30
0.0
 11
10079.6655273438
 21
5558.353515625
 31
0.0
  0
LINE
  5
60F
330
1FF
100
AcDbEntity
  8
0
  6
Continuous
 62
     7
100
AcDbLine
 10
10326.9267578125
 20
5562.2884521484
 30
0.0
 11
10390.4267578125
 21
5562.2884521484
 31
0.0
  0
LINE
  5
610
330
1FF
100
AcDbEntity
  8
0
  6
Continuous
 62
     7
100
AcDbLine
 10
10425.888671875
 20
5579.898925781201
 30
0.0
 11
10705.2890625
 21
5579.898925781201
 31
0.0
  0
LINE
  5
611
330
1FF
100
AcDbEntity
  8
0
  6
Continuous
 62
     7
100
AcDbLine
 10
293.0869140625
 20
5610.0100097656
 30
0.0
 11
572.4873046875
 21
5610.0100097656
 31
0.0
  0
LINE
  5
612
330
1FF
100
AcDbEntity
  8
0
  6
Continuous
 62
     7
100
AcDbLine
 10
795.3701171875
 20
6191.6665039062
 30
0.0
 11
815.9267578125
 21
6188.855224609399
 31
0.0
  0
LINE
  5
613
330
1FF
100
AcDbEntity
  8
0
  6
Continuous
 62
     7
100
AcDbLine
 10
829.2641601561999
 20
6221.7377929688
 30
0.0
 11
815.9267578125
 21
6223.7619628906
 31
0.0
  0
LINE
  5
614
330
1FF
100
AcDbEntity
  8
0
  6
Continuous
 62
     7
100
AcDbLine
 10
815.9267578125
 20
6197.7746582031
 30
0.0
 11
802.5893554688
 21
6199.8032226563
 31
0.0
  0
LINE
  5
615
330
1FF
100
AcDbEntity
  8
0
  6
Continuous
 62
     7
100
AcDbLine
 10
815.9267578125
 20
6223.7619628906
 30
0.0
 11
829.2641601561999
 21
6221.7331542969
 31
0.0
  0
LINE
  5
616
330
1FF
100
AcDbEntity
  8
0
  6
Continuous
 62
     7
100
AcDbLine
 10
801.2495117188001
 20
6200.274902343799
 30
0.0
 11
815.9267578125
 21
6197.7746582031
 31
0.0
  0
LINE
  5
617
330
1FF
100
AcDbEntity
  8
0
  6
Continuous
 62
     7
100
AcDbLine
 10
4789.0875244141
 20
6289.3776855469
 30
0.0
 11
4798.1318359375
 21
6283.007080078101
 31
0.0
  0
LINE
  5
618
330
1FF
100
AcDbEntity
  8
0
  6
Continuous
 62
     7
100
AcDbLine
 10
4636.417480468799
 20
6396.911865234399
 30
0.0
 11
4798.1318359375
 21
6283.007080078101
 31
0.0
  0
LINE
  5
619
330
1FF
100
AcDbEntity
  8
0
  6
Continuous
 62
     7
100
AcDbLine
 10
4646.771301269501
 20
6348.9763183594
 30
0.0
 11
4799.437622070301
 21
6223.0532226562
 31
0.0
  0
LINE
  5
61A
330
1FF
100
AcDbEntity
  8
0
  6
Continuous
 62
     7
100
AcDbLine
 10
4804.598144531301
 20
6292.1860351562
 30
0.0
 11
4859.338623046901
 21
6247.0346679688
 31
0.0
  0
LINE
  5
61B
330
1FF
100
AcDbEntity
  8
0
  6
Continuous
 62
     7
100
AcDbLine
 10
5015.997192382801
 20
6245.329345703101
 30
0.0
 11
4972.533325195301
 21
6296.6066894531
 31
0.0
  0
LINE
  5
61C
330
1FF
100
AcDbEntity
  8
0
  6
Continuous
 62
     7
100
AcDbLine
 10
5016.010925293
 20
6245.3134765625
 30
0.0
 11
4972.533325195301
 21
6296.6066894531
 31
0.0
  0
LINE
  5
61D
330
1FF
100
AcDbEntity
  8
0
  6
Continuous
 62
     7
100
AcDbLine
 10
3083.8869628906
 20
8911.745849609399
 30
0.0
 11
3078.4106445312
 21
8918.888916015601
 31
0.0
  0
LINE
  5
61E
330
1FF
100
AcDbEntity
  8
0
  6
Continuous
 62
     7
100
AcDbLine
 10
5604.349395752
 20
6251.1491699219
 30
0.0
 11
5493.643447876
 21
6444.4162597656
 31
0.0
  0
LINE
  5
61F
330
1FF
100
AcDbEntity
  8
0
  6
Continuous
 62
     7
100
AcDbLine
 10
5652.4492950439
 20
5974.6103515625
 30
0.0
 11
5587.6181335449
 21
6153.7905273438
 31
0.0
  0
LINE
  5
620
330
1FF
100
AcDbEntity
  8
0
  6
Continuous
 62
     7
100
AcDbLine
 10
5724.135848999
 20
6135.2380371094
 30
0.0
 11
5685.5444641113
 21
6354.59765625
 31
0.0
  0
LINE
  5
621
330
1FF
100
AcDbEntity
  8
0
  6
Continuous
 62
     7
100
AcDbLine
 10
8056.7563476562
 20
8934.982666015601
 30
0.0
 11
8053.3347167969
 21
8925.860595703101
 31
0.0
  0
LINE
  5
622
330
1FF
100
AcDbEntity
  8
0
  6
Continuous
 62
     7
100
AcDbLine
 10
8056.734375000001
 20
8934.9260253906
 30
0.0
 11
8053.2980957031
 21
8925.787841796898
 31
0.0
  0
LINE
  5
623
330
1FF
100
AcDbEntity
  8
0
  6
Continuous
 62
     7
100
AcDbLine
 10
7891.7219238281
 20
5282.9969482422
 30
0.0
 11
7972.3051757813
 21
5347.790283203099
 31
0.0
  0
LINE
  5
624
330
1FF
100
AcDbEntity
  8
0
  6
Continuous
 62
     7
100
AcDbLine
 10
8023.1811523438
 20
5280.9052734375
 30
0.0
 11
7940.2709960938
 21
5214.4868164062
 31
0.0
  0
LINE
  5
625
330
1FF
100
AcDbEntity
  8
0
  6
Continuous
 62
     7
100
AcDbLine
 10
7807.080078125
 20
5223.609375
 30
0.0
 11
7891.7219238281
 21
5282.9969482422
 31
0.0
  0
LINE
  5
626
330
1FF
100
AcDbEntity
  8
0
  6
Continuous
 62
     7
100
AcDbLine
 10
7940.2709960938
 20
5214.4868164062
 30
0.0
 11
7853.275878906299
 21
5153.5200195312
 31
0.0
  0
LINE
  5
627
330
1FF
100
AcDbEntity
  8
0
  6
Continuous
 62
     7
100
AcDbLine
 10
7853.275878906299
 20
5153.5200195312
 30
0.0
 11
7806.934570312499
 21
5124.5805664062
 31
0.0
  0
LINE
  5
628
330
1FF
100
AcDbEntity
  8
0
  6
Continuous
 62
     7
100
AcDbLine
 10
7761.864257812501
 20
5195.415649414099
 30
0.0
 11
7807.080078125
 21
5223.609375
 31
0.0
  0
LINE
  5
629
330
1FF
100
AcDbEntity
  8
0
  6
Continuous
 62
     7
100
AcDbLine
 10
7759.518310546899
 20
5097.4382324219
 30
0.0
 11
7806.934570312499
 21
5124.5805664062
 31
0.0
  0
LINE
  5
62A
330
1FF
100
AcDbEntity
  8
0
  6
Continuous
 62
     7
100
AcDbLine
 10
7806.934570312499
 20
5124.5805664062
 30
0.0
 11
7759.518310546899
 21
5097.4378662109
 31
0.0
  0
LINE
  5
62B
330
1FF
100
AcDbEntity
  8
0
  6
Continuous
 62
     7
100
AcDbLine
 10
708.0415039062
 20
1818.1882324219
 30
0.0
 11
977.3618164063
 21
1924.5942382812
 31
0.0
  0
LINE
  5
62C
330
1FF
100
AcDbEntity
  8
0
  6
Continuous
 62
     7
100
AcDbLine
 10
918.7104492188
 20
5662.101806640601
 30
0.0
 11
1151.7553710938
 21
5662.101806640601
 31
0.0
  0
LINE
  5
62D
330
1FF
100
AcDbEntity
  8
0
  6
Continuous
 62
     7
100
AcDbLine
 10
293.0869140625
 20
5676.4267578125
 30
0.0
 11
572.4873046875
 21
5676.4267578125
 31
0.0
  0
LINE
  5
62E
330
1FF
100
AcDbEntity
  8
0
  6
Continuous
 62
     7
100
AcDbLine
 10
765.8588867188
 20
5684.9787597656
 30
0.0
 11
773.9506835938
 21
5684.9787597656
 31
0.0
  0
LINE
  5
62F
330
1FF
100
AcDbEntity
  8
0
  6
Continuous
 62
     7
100
AcDbLine
 10
10198.7939453125
 20
5684.9787597656
 30
0.0
 11
10232.5170898438
 21
5684.9787597656
 31
0.0
  0
LINE
  5
630
330
1FF
100
AcDbEntity
  8
0
  6
Continuous
 62
     7
100
AcDbLine
 10
9846.620605468801
 20
5696.6279296875
 30
0.0
 11
9865.744628906302
 21
5696.6279296875
 31
0.0
  0
LINE
  5
631
330
1FF
100
AcDbEntity
  8
0
  6
Continuous
 62
     7
100
AcDbLine
 10
10032.0483398438
 20
5696.6279296875
 30
0.0
 11
10079.6655273438
 21
5696.6279296875
 31
0.0
  0
LINE
  5
632
330
1FF
100
AcDbEntity
  8
0
  6
Continuous
 62
     7
100
AcDbLine
 10
572.4873046875
 20
5699.8918457031
 30
0.0
 11
607.9750976563
 21
5699.8918457031
 31
0.0
  0
LINE
  5
633
330
1FF
100
AcDbEntity
  8
0
  6
Continuous
 62
     7
100
AcDbLine
 10
671.4750976561999
 20
5699.8918457031
 30
0.0
 11
715.0590820311999
 21
5699.8918457031
 31
0.0
  0
LINE
  5
634
330
1FF
100
AcDbEntity
  8
0
  6
Continuous
 62
     7
100
AcDbLine
 10
878.1083984374999
 20
5699.8918457031
 30
0.0
 11
918.7309570313001
 21
5699.8918457031
 31
0.0
  0
LINE
  5
635
330
1FF
100
AcDbEntity
  8
0
  6
Continuous
 62
     7
100
AcDbLine
 10
10079.693359375
 20
5699.8918457031
 30
0.0
 11
10120.267578125
 21
5699.8918457031
 31
0.0
  0
LINE
  5
636
330
1FF
100
AcDbEntity
  8
0
  6
Continuous
 62
     7
100
AcDbLine
 10
10283.3168945312
 20
5699.8918457031
 30
0.0
 11
10326.9575195313
 21
5699.8918457031
 31
0.0
  0
LINE
  5
637
330
1FF
100
AcDbEntity
  8
0
  6
Continuous
 62
     7
100
AcDbLine
 10
10390.4575195312
 20
5699.8918457031
 30
0.0
 11
10425.921875
 21
5699.8918457031
 31
0.0
  0
LINE
  5
638
330
1FF
100
AcDbEntity
  8
0
  6
Continuous
 62
     7
100
AcDbLine
 10
1151.7763671875
 20
5702.1394042969
 30
0.0
 11
1220.404296875
 21
5702.1394042969
 31
0.0
  0
LINE
  5
639
330
1FF
100
AcDbEntity
  8
0
  6
Continuous
 62
     7
100
AcDbLine
 10
1260.5595703125
 20
5702.1394042969
 30
0.0
 11
1303.3100585938
 21
5702.1394042969
 31
0.0
  0
LINE
  5
63A
330
1FF
100
AcDbEntity
  8
0
  6
Continuous
 62
     7
100
AcDbLine
 10
9695.066162109398
 20
5702.1394042969
 30
0.0
 11
9737.849609375
 21
5702.1394042969
 31
0.0
  0
LINE
  5
63B
330
1FF
100
AcDbEntity
  8
0
  6
Continuous
 62
     7
100
AcDbLine
 10
9778.004882812501
 20
5702.1394042969
 30
0.0
 11
9846.647949218802
 21
5702.1394042969
 31
0.0
  0
LINE
  5
63C
330
1FF
100
AcDbEntity
  8
0
  6
Continuous
 62
     7
100
AcDbLine
 10
293.0869140625
 20
5738.471435546899
 30
0.0
 11
572.4873046875
 21
5738.471435546899
 31
0.0
  0
LINE
  5
63D
330
1FF
100
AcDbEntity
  8
0
  6
Continuous
 62
     7
100
AcDbLine
 10
10425.888671875
 20
5755.552734375
 30
0.0
 11
10705.2890625
 21
5755.552734375
 31
0.0
  0
LINE
  5
63E
330
1FF
100
AcDbEntity
  8
0
  6
Continuous
 62
     7
100
AcDbLine
 10
918.7104492188
 20
5760.6362304688
 30
0.0
 11
1151.7553710938
 21
5760.6362304688
 31
0.0
  0
LINE
  5
63F
330
1FF
100
AcDbEntity
  8
0
  6
Continuous
 62
     7
100
AcDbLine
 10
259.03515625
 20
5774.7736816406
 30
0.0
 11
293.1196289062
 21
5774.7736816406
 31
0.0
  0
LINE
  5
640
330
1FF
100
AcDbEntity
  8
0
  6
Continuous
 62
     7
100
AcDbLine
 10
10705.2890625
 20
5774.7736816406
 30
0.0
 11
10739.3637695312
 21
5774.7736816406
 31
0.0
  0
LINE
  5
641
330
1FF
100
AcDbEntity
  8
0
  6
Continuous
 62
     7
100
AcDbLine
 10
195.5122070312
 20
5798.9831542969
 30
0.0
 11
259.0122070313
 21
5798.9831542969
 31
0.0
  0
LINE
  5
642
330
1FF
100
AcDbEntity
  8
0
  6
Continuous
 62
     7
100
AcDbLine
 10
9846.620605468801
 20
5805.320068359399
 30
0.0
 11
9865.741699218801
 21
5805.320068359399
 31
0.0
  0
LINE
  5
643
330
1FF
100
AcDbEntity
  8
0
  6
Continuous
 62
     7
100
AcDbLine
 10
10032.0473632813
 20
5805.320068359399
 30
0.0
 11
10079.6655273438
 21
5805.320068359399
 31
0.0
  0
LINE
  5
644
330
1FF
100
AcDbEntity
  8
0
  6
Continuous
 62
     7
100
AcDbLine
 10
607.94921875
 20
5822.9645996094
 30
0.0
 11
671.44921875
 21
5822.9645996094
 31
0.0
  0
LINE
  5
645
330
1FF
100
AcDbEntity
  8
0
  6
Continuous
 62
     7
100
AcDbLine
 10
93.478515625
 20
5838.8825683594
 30
0.0
 11
139.208984375
 21
5838.8825683594
 31
0.0
  0
LINE
  5
646
330
1FF
100
AcDbEntity
  8
0
  6
Continuous
 62
     7
100
AcDbLine
 10
17.7763671875
 20
5854.291748046899
 30
0.0
 11
93.51367187500001
 21
5854.291748046899
 31
0.0
  0
LINE
  5
647
330
1FF
100
AcDbEntity
  8
0
  6
Continuous
 62
     7
100
AcDbLine
 10
139.2436523438
 20
5854.291748046899
 30
0.0
 11
195.5375976562
 21
5854.291748046899
 31
0.0
  0
LINE
  5
648
330
1FF
100
AcDbEntity
  8
0
  6
Continuous
 62
     7
100
AcDbLine
 10
10802.8637695313
 20
5854.291748046899
 30
0.0
 11
10859.1669921875
 21
5854.291748046899
 31
0.0
  0
LINE
  5
649
330
1FF
100
AcDbEntity
  8
0
  6
Continuous
 62
     7
100
AcDbLine
 10
10904.8974609375
 20
5854.291748046899
 30
0.0
 11
10980.599609375
 21
5854.291748046899
 31
0.0
  0
LINE
  5
64A
330
1FF
100
AcDbEntity
  8
DEFAULT_1
  6
CENTER
 62
     7
100
AcDbLine
 10
10440.1708984375
 20
5872.1628417969
 30
0.0
 11
10425.9111328125
 21
5872.1628417969
 31
0.0
  0
LINE
  5
64B
330
1FF
100
AcDbEntity
  8
DEFAULT_1
  6
CENTER
 62
     7
100
AcDbLine
 10
10283.3168945312
 20
5872.1628417969
 30
0.0
 11
10269.0576171875
 21
5872.1628417969
 31
0.0
  0
LINE
  5
64C
330
1FF
100
AcDbEntity
  8
DEFAULT_1
  6
CENTER
 62
     7
100
AcDbLine
 10
10390.44921875
 20
5872.1628417969
 30
0.0
 11
10326.94921875
 21
5872.1628417969
 31
0.0
  0
LINE
  5
64D
330
1FF
100
AcDbEntity
  8
DEFAULT_1
  6
CENTER
 62
     7
100
AcDbLine
 10
537.8959960937
 20
5872.1628417969
 30
0.0
 11
572.5166015624999
 21
5872.1628417969
 31
0.0
  0
LINE
  5
64E
330
1FF
100
AcDbEntity
  8
DEFAULT_1
  6
CENTER
 62
     7
100
AcDbLine
 10
607.9653320311999
 20
5872.1628417969
 30
0.0
 11
671.4653320313
 21
5872.1628417969
 31
0.0
  0
LINE
  5
64F
330
1FF
100
AcDbEntity
  8
DEFAULT_1
  6
CENTER
 62
     7
100
AcDbLine
 10
715.0590820311999
 20
5872.1628417969
 30
0.0
 11
878.1083984374999
 21
5872.1628417969
 31
0.0
  0
LINE
  5
650
330
1FF
100
AcDbEntity
  8
DEFAULT_1
  6
CENTER
 62
     7
100
AcDbLine
 10
918.720703125
 20
5872.1628417969
 30
0.0
 11
953.3413085938001
 21
5872.1628417969
 31
0.0
  0
LINE
  5
651
330
1FF
100
AcDbEntity
  8
0
  6
Continuous
 62
     7
100
AcDbLine
 10
572.5166015624999
 20
5872.1628417969
 30
0.0
 11
607.9653320311999
 21
5872.1628417969
 31
0.0
  0
LINE
  5
652
330
1FF
100
AcDbEntity
  8
0
  6
Continuous
 62
     7
100
AcDbLine
 10
671.4653320313
 20
5872.1628417969
 30
0.0
 11
715.0590820311999
 21
5872.1628417969
 31
0.0
  0
LINE
  5
653
330
1FF
100
AcDbEntity
  8
0
  6
Continuous
 62
     7
100
AcDbLine
 10
878.1083984374999
 20
5872.1628417969
 30
0.0
 11
918.720703125
 21
5872.1628417969
 31
0.0
  0
LINE
  5
654
330
1FF
100
AcDbEntity
  8
0
  6
Continuous
 62
     7
100
AcDbLine
 10
10283.3168945312
 20
5872.1628417969
 30
0.0
 11
10326.94921875
 21
5872.1628417969
 31
0.0
  0
LINE
  5
655
330
1FF
100
AcDbEntity
  8
0
  6
Continuous
 62
     7
100
AcDbLine
 10
10390.44921875
 20
5872.1628417969
 30
0.0
 11
10425.9111328125
 21
5872.1628417969
 31
0.0
  0
LINE
  5
656
330
1FF
100
AcDbEntity
  8
DEFAULT_1
  6
CENTER
 62
     7
100
AcDbLine
 10
10238.6645507813
 20
5872.384765625
 30
0.0
 11
10232.5170898438
 21
5872.384765625
 31
0.0
  0
LINE
  5
657
330
1FF
100
AcDbEntity
  8
DEFAULT_1
  6
CENTER
 62
     7
100
AcDbLine
 10
10171.0673828125
 20
5872.384765625
 30
0.0
 11
10164.8950195313
 21
5872.384765625
 31
0.0
  0
LINE
  5
658
330
1FF
100
AcDbEntity
  8
0
  6
Continuous
 62
     7
100
AcDbLine
 10
10171.0673828125
 20
5872.384765625
 30
0.0
 11
10232.5170898438
 21
5872.384765625
 31
0.0
  0
LINE
  5
659
330
1FF
100
AcDbEntity
  8
DEFAULT_1
  6
CENTER
 62
     7
100
AcDbLine
 10
10162.7875976563
 20
5874.4111328125
 30
0.0
 11
10120.267578125
 21
5874.4111328125
 31
0.0
  0
LINE
  5
65A
330
1FF
100
AcDbEntity
  8
DEFAULT_1
  6
CENTER
 62
     7
100
AcDbLine
 10
9695.066162109398
 20
5874.4111328125
 30
0.0
 11
9652.545898437502
 21
5874.4111328125
 31
0.0
  0
LINE
  5
65B
330
1FF
100
AcDbEntity
  8
DEFAULT_1
  6
CENTER
 62
     7
100
AcDbLine
 10
9778.004882812501
 20
5874.4111328125
 30
0.0
 11
9737.849609375
 21
5874.4111328125
 31
0.0
  0
LINE
  5
65C
330
1FF
100
AcDbEntity
  8
DEFAULT_1
  6
CENTER
 62
     7
100
AcDbLine
 10
10079.6831054688
 20
5874.4111328125
 30
0.0
 11
9846.637695312502
 21
5874.4111328125
 31
0.0
  0
LINE
  5
65D
330
1FF
100
AcDbEntity
  8
DEFAULT_1
  6
CENTER
 62
     7
100
AcDbLine
 10
835.5883789063
 20
5874.4111328125
 30
0.0
 11
1151.7661132812
 21
5874.4111328125
 31
0.0
  0
LINE
  5
65E
330
1FF
100
AcDbEntity
  8
DEFAULT_1
  6
CENTER
 62
     7
100
AcDbLine
 10
1220.3916015625
 20
5874.4111328125
 30
0.0
 11
1260.546875
 21
5874.4111328125
 31
0.0
  0
LINE
  5
65F
330
1FF
100
AcDbEntity
  8
DEFAULT_1
  6
CENTER
 62
     7
100
AcDbLine
 10
1303.3100585938
 20
5874.4111328125
 30
0.0
 11
1345.830078125
 21
5874.4111328125
 31
0.0
  0
LINE
  5
660
330
1FF
100
AcDbEntity
  8
0
  6
Continuous
 62
     7
100
AcDbLine
 10
1151.7661132812
 20
5874.4111328125
 30
0.0
 11
1220.3916015625
 21
5874.4111328125
 31
0.0
  0
LINE
  5
661
330
1FF
100
AcDbEntity
  8
0
  6
Continuous
 62
     7
100
AcDbLine
 10
1260.546875
 20
5874.4111328125
 30
0.0
 11
1303.3100585938
 21
5874.4111328125
 31
0.0
  0
LINE
  5
662
330
1FF
100
AcDbEntity
  8
0
  6
Continuous
 62
     7
100
AcDbLine
 10
9695.066162109398
 20
5874.4111328125
 30
0.0
 11
9737.849609375
 21
5874.4111328125
 31
0.0
  0
LINE
  5
663
330
1FF
100
AcDbEntity
  8
0
  6
Continuous
 62
     7
100
AcDbLine
 10
9778.004882812501
 20
5874.4111328125
 30
0.0
 11
9846.637695312502
 21
5874.4111328125
 31
0.0
  0
LINE
  5
664
330
1FF
100
AcDbEntity
  8
0
  6
Continuous
 62
     7
100
AcDbLine
 10
10079.6831054688
 20
5874.4111328125
 30
0.0
 11
10120.267578125
 21
5874.4111328125
 31
0.0
  0
LINE
  5
665
330
1FF
100
AcDbEntity
  8
0
  6
Continuous
 62
     7
100
AcDbLine
 10
10323.857421875
 20
5882.9790039062
 30
0.0
 11
10628.6572265625
 21
5882.9790039062
 31
0.0
  0
LINE
  5
666
330
1FF
100
AcDbEntity
  8
0
  6
Continuous
 62
     7
100
AcDbLine
 10
10628.6572265625
 20
5883.6647949219
 30
0.0
 11
10811.9619140625
 21
5883.6647949219
 31
0.0
  0
LINE
  5
667
330
1FF
100
AcDbEntity
  8
0
  6
Continuous
 62
     7
100
AcDbLine
 10
1220.37109375
 20
5883.9890136719
 30
0.0
 11
1260.5263671875
 21
5883.9890136719
 31
0.0
  0
LINE
  5
668
330
1FF
100
AcDbEntity
  8
0
  6
Continuous
 62
     7
100
AcDbLine
 10
293.0869140625
 20
5885.5729980469
 30
0.0
 11
572.4873046875
 21
5885.5729980469
 31
0.0
  0
LINE
  5
669
330
1FF
100
AcDbEntity
  8
0
  6
Continuous
 62
     7
100
AcDbLine
 10
293.0869140625
 20
5900.6372070313
 30
0.0
 11
572.4873046875
 21
5900.6372070313
 31
0.0
  0
LINE
  5
66A
330
1FF
100
AcDbEntity
  8
DEFAULT_1
  6
CENTER
 62
     7
100
AcDbLine
 10
765.0498046875
 20
5905.1254882812
 30
0.0
 11
765.8588867188
 21
5905.1254882812
 31
0.0
  0
LINE
  5
66B
330
1FF
100
AcDbEntity
  8
0
  6
Continuous
 62
     7
100
AcDbLine
 10
765.8588867188
 20
5905.1254882812
 30
0.0
 11
773.9506835938
 21
5905.1254882812
 31
0.0
  0
LINE
  5
66C
330
1FF
100
AcDbEntity
  8
DEFAULT_1
  6
CENTER
 62
     7
100
AcDbLine
 10
773.9506835938
 20
5905.1254882812
 30
0.0
 11
774.7597656249999
 21
5905.1254882812
 31
0.0
  0
LINE
  5
66D
330
1FF
100
AcDbEntity
  8
DEFAULT_1
  6
CENTER
 62
     7
100
AcDbLine
 10
10998.3735351563
 20
5914.333496093799
 30
0.0
 11
10980.599609375
 21
5914.333496093799
 31
0.0
  0
LINE
  5
66E
330
1FF
100
AcDbEntity
  8
DEFAULT_1
  6
CENTER
 62
     7
100
AcDbLine
 10
10811.9619140625
 20
5914.333496093799
 30
0.0
 11
10785.08984375
 21
5914.333496093799
 31
0.0
  0
LINE
  5
66F
330
1FF
100
AcDbEntity
  8
DEFAULT_1
  6
CENTER
 62
     7
100
AcDbLine
 10
10904.8974609375
 20
5914.333496093799
 30
0.0
 11
10859.1669921875
 21
5914.333496093799
 31
0.0
  0
LINE
  5
670
330
1FF
100
AcDbEntity
  8
DEFAULT_1
  6
CENTER
 62
     7
100
AcDbLine
 10
5430.5506439209
 20
5914.333496093799
 30
0.0
 11
5274.4417724609
 21
5914.333496093799
 31
0.0
  0
LINE
  5
671
330
1FF
100
AcDbEntity
  8
DEFAULT_1
  6
CENTER
 62
     7
100
AcDbLine
 10
0.0
 20
5914.333496093799
 30
0.0
 11
17.7763671875
 21
5914.333496093799
 31
0.0
  0
LINE
  5
672
330
1FF
100
AcDbEntity
  8
DEFAULT_1
  6
CENTER
 62
     7
100
AcDbLine
 10
93.5024414063
 20
5914.333496093799
 30
0.0
 11
139.2329101563
 21
5914.333496093799
 31
0.0
  0
LINE
  5
673
330
1FF
100
AcDbEntity
  8
DEFAULT_1
  6
CENTER
 62
     7
100
AcDbLine
 10
195.5317382813
 20
5914.333496093799
 30
0.0
 11
213.3134765625
 21
5914.333496093799
 31
0.0
  0
LINE
  5
674
330
1FF
100
AcDbEntity
  8
0
  6
Continuous
 62
     7
100
AcDbLine
 10
17.7763671875
 20
5914.333496093799
 30
0.0
 11
93.5024414063
 21
5914.333496093799
 31
0.0
  0
LINE
  5
675
330
1FF
100
AcDbEntity
  8
0
  6
Continuous
 62
     7
100
AcDbLine
 10
139.2329101563
 20
5914.333496093799
 30
0.0
 11
195.5317382813
 21
5914.333496093799
 31
0.0
  0
LINE
  5
676
330
1FF
100
AcDbEntity
  8
0
  6
Continuous
 62
     7
100
AcDbLine
 10
10811.9619140625
 20
5914.333496093799
 30
0.0
 11
10859.1669921875
 21
5914.333496093799
 31
0.0
  0
LINE
  5
677
330
1FF
100
AcDbEntity
  8
0
  6
Continuous
 62
     7
100
AcDbLine
 10
10904.8974609375
 20
5914.333496093799
 30
0.0
 11
10980.599609375
 21
5914.333496093799
 31
0.0
  0
LINE
  5
678
330
1FF
100
AcDbEntity
  8
DEFAULT_1
  6
CENTER
 62
     7
100
AcDbLine
 10
10288.3994140625
 20
5915.7624511719
 30
0.0
 11
10283.3168945312
 21
5915.7624511719
 31
0.0
  0
LINE
  5
679
330
1FF
100
AcDbEntity
  8
DEFAULT_1
  6
CENTER
 62
     7
100
AcDbLine
 10
10232.5170898438
 20
5915.7624511719
 30
0.0
 11
10227.4096679688
 21
5915.7624511719
 31
0.0
  0
LINE
  5
67A
330
1FF
100
AcDbEntity
  8
DEFAULT_1
  6
CENTER
 62
     7
100
AcDbLine
 10
709.9790039063
 20
5915.7624511719
 30
0.0
 11
715.0590820311999
 21
5915.7624511719
 31
0.0
  0
LINE
  5
67B
330
1FF
100
AcDbEntity
  8
DEFAULT_1
  6
CENTER
 62
     7
100
AcDbLine
 10
765.8588867188
 20
5915.7624511719
 30
0.0
 11
770.9389648436999
 21
5915.7624511719
 31
0.0
  0
LINE
  5
67C
330
1FF
100
AcDbEntity
  8
0
  6
Continuous
 62
     7
100
AcDbLine
 10
715.0590820311999
 20
5915.7624511719
 30
0.0
 11
765.8588867188
 21
5915.7624511719
 31
0.0
  0
LINE
  5
67D
330
1FF
100
AcDbEntity
  8
0
  6
Continuous
 62
     7
100
AcDbLine
 10
10232.5170898438
 20
5915.7624511719
 30
0.0
 11
10283.3168945312
 21
5915.7624511719
 31
0.0
  0
LINE
  5
67E
330
1FF
100
AcDbEntity
  8
DEFAULT_1
  6
CENTER
 62
     7
100
AcDbLine
 10
10176.1499023438
 20
5917.1022949219
 30
0.0
 11
10171.0673828125
 21
5917.1022949219
 31
0.0
  0
LINE
  5
67F
330
1FF
100
AcDbEntity
  8
DEFAULT_1
  6
CENTER
 62
     7
100
AcDbLine
 10
10120.267578125
 20
5917.1022949219
 30
0.0
 11
10115.1596679688
 21
5917.1022949219
 31
0.0
  0
LINE
  5
680
330
1FF
100
AcDbEntity
  8
DEFAULT_1
  6
CENTER
 62
     7
100
AcDbLine
 10
855.8823242186999
 20
5917.1022949219
 30
0.0
 11
857.9028320313
 21
5917.1022949219
 31
0.0
  0
LINE
  5
681
330
1FF
100
AcDbEntity
  8
0
  6
Continuous
 62
     7
100
AcDbLine
 10
857.9028320313
 20
5917.1022949219
 30
0.0
 11
878.1083984374999
 21
5917.1022949219
 31
0.0
  0
LINE
  5
682
330
1FF
100
AcDbEntity
  8
DEFAULT_1
  6
CENTER
 62
     7
100
AcDbLine
 10
878.1083984374999
 20
5917.1022949219
 30
0.0
 11
880.1293945313
 21
5917.1022949219
 31
0.0
  0
LINE
  5
683
330
1FF
100
AcDbEntity
  8
0
  6
Continuous
 62
     7
100
AcDbLine
 10
10120.267578125
 20
5917.1022949219
 30
0.0
 11
10171.0673828125
 21
5917.1022949219
 31
0.0
  0
LINE
  5
684
330
1FF
100
AcDbEntity
  8
0
  6
Continuous
 62
     7
100
AcDbLine
 10
9846.620605468801
 20
5965.458740234399
 30
0.0
 11
9865.7421875
 21
5965.458740234399
 31
0.0
  0
LINE
  5
685
330
1FF
100
AcDbEntity
  8
0
  6
Continuous
 62
     7
100
AcDbLine
 10
10032.0546875
 20
5965.458740234399
 30
0.0
 11
10079.6655273438
 21
5965.458740234399
 31
0.0
  0
LINE
  5
686
330
1FF
100
AcDbEntity
  8
0
  6
Continuous
 62
     7
100
AcDbLine
 10
17.7763671875
 20
5974.3752441406
 30
0.0
 11
93.5009765625
 21
5974.3752441406
 31
0.0
  0
LINE
  5
687
330
1FF
100
AcDbEntity
  8
0
  6
Continuous
 62
     7
100
AcDbLine
 10
139.2309570312
 20
5974.3752441406
 30
0.0
 11
195.5341796875
 21
5974.3752441406
 31
0.0
  0
LINE
  5
688
330
1FF
100
AcDbEntity
  8
0
  6
Continuous
 62
     7
100
AcDbLine
 10
10811.9619140625
 20
5974.3752441406
 30
0.0
 11
10859.1669921875
 21
5974.3752441406
 31
0.0
  0
LINE
  5
689
330
1FF
100
AcDbEntity
  8
0
  6
Continuous
 62
     7
100
AcDbLine
 10
10904.8974609375
 20
5974.3752441406
 30
0.0
 11
10980.599609375
 21
5974.3752441406
 31
0.0
  0
LINE
  5
68A
330
1FF
100
AcDbEntity
  8
0
  6
Continuous
 62
     7
100
AcDbLine
 10
918.7104492188
 20
5977.5537109375
 30
0.0
 11
1151.7553710938
 21
5977.5537109375
 31
0.0
  0
LINE
  5
68B
330
1FF
100
AcDbEntity
  8
0
  6
Continuous
 62
     7
100
AcDbLine
 10
9846.620605468801
 20
5999.5964355469
 30
0.0
 11
9865.746093750001
 21
5999.5964355469
 31
0.0
  0
LINE
  5
68C
330
1FF
100
AcDbEntity
  8
0
  6
Continuous
 62
     7
100
AcDbLine
 10
10032.05859375
 20
5999.5964355469
 30
0.0
 11
10079.6655273438
 21
5999.5964355469
 31
0.0
  0
LINE
  5
68D
330
1FF
100
AcDbEntity
  8
0
  6
Continuous
 62
     7
100
AcDbLine
 10
9846.620605468801
 20
6005.3994140625
 30
0.0
 11
9865.744140625
 21
6005.3994140625
 31
0.0
  0
LINE
  5
68E
330
1FF
100
AcDbEntity
  8
0
  6
Continuous
 62
     7
100
AcDbLine
 10
10032.056640625
 20
6005.3994140625
 30
0.0
 11
10079.6655273438
 21
6005.3994140625
 31
0.0
  0
LINE
  5
68F
330
1FF
100
AcDbEntity
  8
0
  6
Continuous
 62
     7
100
AcDbLine
 10
9846.620605468801
 20
6043.041259765601
 30
0.0
 11
9865.747558593803
 21
6043.041259765601
 31
0.0
  0
LINE
  5
690
330
1FF
100
AcDbEntity
  8
0
  6
Continuous
 62
     7
100
AcDbLine
 10
10032.0600585938
 20
6043.041259765601
 30
0.0
 11
10079.6655273438
 21
6043.041259765601
 31
0.0
  0
LINE
  5
691
330
1FF
100
AcDbEntity
  8
0
  6
Continuous
 62
     7
100
AcDbLine
 10
572.5185546875
 20
6044.4345703125
 30
0.0
 11
607.9731445311999
 21
6044.4345703125
 31
0.0
  0
LINE
  5
692
330
1FF
100
AcDbEntity
  8
0
  6
Continuous
 62
     7
100
AcDbLine
 10
671.4731445313
 20
6044.4345703125
 30
0.0
 11
715.0590820311999
 21
6044.4345703125
 31
0.0
  0
LINE
  5
693
330
1FF
100
AcDbEntity
  8
0
  6
Continuous
 62
     7
100
AcDbLine
 10
10283.3168945312
 20
6044.4345703125
 30
0.0
 11
10323.9233398438
 21
6044.4345703125
 31
0.0
  0
LINE
  5
694
330
1FF
100
AcDbEntity
  8
0
  6
Continuous
 62
     7
100
AcDbLine
 10
878.1083984374999
 20
6046.6828613281
 30
0.0
 11
918.7299804688001
 21
6046.6828613281
 31
0.0
  0
LINE
  5
695
330
1FF
100
AcDbEntity
  8
0
  6
Continuous
 62
     7
100
AcDbLine
 10
1151.7749023438
 20
6046.6828613281
 30
0.0
 11
1220.384765625
 21
6046.6828613281
 31
0.0
  0
LINE
  5
696
330
1FF
100
AcDbEntity
  8
0
  6
Continuous
 62
     7
100
AcDbLine
 10
1260.5400390625
 20
6046.6828613281
 30
0.0
 11
1303.3100585938
 21
6046.6828613281
 31
0.0
  0
LINE
  5
697
330
1FF
100
AcDbEntity
  8
0
  6
Continuous
 62
     7
100
AcDbLine
 10
9695.066162109398
 20
6046.6828613281
 30
0.0
 11
9737.849609375
 21
6046.6828613281
 31
0.0
  0
LINE
  5
698
330
1FF
100
AcDbEntity
  8
0
  6
Continuous
 62
     7
100
AcDbLine
 10
9778.004882812501
 20
6046.6828613281
 30
0.0
 11
9846.645507812501
 21
6046.6828613281
 31
0.0
  0
LINE
  5
699
330
1FF
100
AcDbEntity
  8
0
  6
Continuous
 62
     7
100
AcDbLine
 10
10079.6904296875
 20
6046.6828613281
 30
0.0
 11
10120.267578125
 21
6046.6828613281
 31
0.0
  0
LINE
  5
69A
330
1FF
100
AcDbEntity
  8
0
  6
Continuous
 62
     7
100
AcDbLine
 10
10171.0961914062
 20
5810.1228027344
 30
0.0
 11
10172.6137695312
 21
5810.09375
 31
0.0
  0
LINE
  5
69B
330
1FF
100
AcDbEntity
  8
0
  6
Continuous
 62
     7
100
AcDbLine
 10
10171.1015625
 20
5810.1015625
 30
0.0
 11
10172.6137695312
 21
5810.0549316406
 31
0.0
  0
LINE
  5
69C
330
1FF
100
AcDbEntity
  8
0
  6
Continuous
 62
     7
100
AcDbLine
 10
800.7905273437
 20
6190.3276367187
 30
0.0
 11
815.9267578125
 21
6188.855224609399
 31
0.0
  0
LINE
  5
69D
330
1FF
100
AcDbEntity
  8
0
  6
Continuous
 62
     7
100
AcDbLine
 10
831.0629882813
 20
6231.208984375
 30
0.0
 11
815.9267578125
 21
6232.6813964844
 31
0.0
  0
LINE
  5
69E
330
1FF
100
AcDbEntity
  8
0
  6
Continuous
 62
     7
100
AcDbLine
 10
831.0590820313001
 20
6231.2021484375
 30
0.0
 11
815.9267578125
 21
6232.6813964844
 31
0.0
  0
LINE
  5
69F
330
1FF
100
AcDbEntity
  8
0
  6
Continuous
 62
     7
100
AcDbLine
 10
5812.726852417
 20
5900.6372070313
 30
0.0
 11
5955.337402343801
 21
5885.5729980469
 31
0.0
  0
LINE
  5
6A0
330
1FF
100
AcDbEntity
  8
0
  6
Continuous
 62
     7
100
AcDbLine
 10
5853.243515014599
 20
5712.2963867188
 30
0.0
 11
5919.800048828101
 21
5676.4267578125
 31
0.0
  0
LINE
  5
6A1
330
1FF
100
AcDbEntity
  8
0
  6
Continuous
 62
     7
100
AcDbLine
 10
5137.6730957031
 20
6401.4428710938
 30
0.0
 11
5305.1855773926
 21
6309.564453125
 31
0.0
  0
LINE
  5
6A2
330
1FF
100
AcDbEntity
  8
0
  6
Continuous
 62
     7
100
AcDbLine
 10
5367.3930053711
 20
6281.4240722656
 30
0.0
 11
5587.6181335449
 21
6153.7905273438
 31
0.0
  0
LINE
  5
6A3
330
1FF
100
AcDbEntity
  8
0
  6
Continuous
 62
     7
100
AcDbLine
 10
5301.6192016602
 20
6215.5
 30
0.0
 11
5850.1070709229
 21
5838.8825683594
 31
0.0
  0
LINE
  5
6A4
330
1FF
100
AcDbEntity
  8
0
  6
Continuous
 62
     7
100
AcDbLine
 10
4890.424987793
 20
6396.006103515601
 30
0.0
 11
4957.7154541016
 21
6348.6101074219
 31
0.0
  0
LINE
  5
6A5
330
1FF
100
AcDbEntity
  8
0
  6
Continuous
 62
     7
100
AcDbLine
 10
4732.870361328099
 20
6533.8493652344
 30
0.0
 11
4903.3400268555
 21
6413.7780761719
 31
0.0
  0
LINE
  5
6A6
330
1FF
100
AcDbEntity
  8
0
  6
Continuous
 62
     7
100
AcDbLine
 10
4133.320068359401
 20
7246.0817871094
 30
0.0
 11
4389.651000976599
 21
7016.8312988281
 31
0.0
  0
LINE
  5
6A7
330
1FF
100
AcDbEntity
  8
0
  6
Continuous
 62
     7
100
AcDbLine
 10
5426.390335083
 20
6312.6801757812
 30
0.0
 11
5310.5128173828
 21
6448.523193359399
 31
0.0
  0
LINE
  5
6A8
330
1FF
100
AcDbEntity
  8
0
  6
Continuous
 62
     7
100
AcDbLine
 10
8058.931640625001
 20
8944.484619140601
 30
0.0
 11
8056.7563476562
 21
8934.982666015601
 31
0.0
  0
LINE
  5
6A9
330
1FF
100
AcDbEntity
  8
0
  6
Continuous
 62
     7
100
AcDbLine
 10
8058.9309082031
 20
8944.444091796899
 30
0.0
 11
8056.734375000001
 21
8934.9260253906
 31
0.0
  0
LINE
  5
6AA
330
1FF
100
AcDbEntity
  8
0
  6
Continuous
 62
     7
100
AcDbLine
 10
8207.230224609398
 20
5583.690063476601
 30
0.0
 11
8281.008056640601
 21
5671.7729492188
 31
0.0
  0
LINE
  5
6AB
330
1FF
100
AcDbEntity
  8
0
  6
Continuous
 62
     7
100
AcDbLine
 10
8130.0795898438
 20
5498.548706054699
 30
0.0
 11
8207.230224609398
 21
5583.690063476601
 31
0.0
  0
LINE
  5
6AC
330
1FF
100
AcDbEntity
  8
0
  6
Continuous
 62
     7
100
AcDbLine
 10
8265.240234374999
 20
5522.5682373047
 30
0.0
 11
8185.7199707031
 21
5435.329589843799
 31
0.0
  0
LINE
  5
6AD
330
1FF
100
AcDbEntity
  8
0
  6
Continuous
 62
     7
100
AcDbLine
 10
8049.0187988281
 20
5417.1258544922
 30
0.0
 11
8130.0795898438
 21
5498.548706054699
 31
0.0
  0
LINE
  5
6AE
330
1FF
100
AcDbEntity
  8
0
  6
Continuous
 62
     7
100
AcDbLine
 10
8185.7199707031
 20
5435.329589843799
 30
0.0
 11
8102.1826171875
 21
5351.9326171875
 31
0.0
  0
LINE
  5
6AF
330
1FF
100
AcDbEntity
  8
0
  6
Continuous
 62
     7
100
AcDbLine
 10
7972.3051757813
 20
5347.790283203099
 30
0.0
 11
8049.0187988281
 21
5417.1258544922
 31
0.0
  0
LINE
  5
6B0
330
1FF
100
AcDbEntity
  8
0
  6
Continuous
 62
     7
100
AcDbLine
 10
8102.1826171875
 20
5351.9326171875
 30
0.0
 11
8023.1811523438
 21
5280.9052734375
 31
0.0
  0
LINE
  5
6B1
330
1FF
100
AcDbEntity
  8
0
  6
Continuous
 62
     7
100
AcDbLine
 10
2608.4309082031
 20
1366.4641113281
 30
0.0
 11
4237.368041992199
 21
2354.1829833984
 31
0.0
  0
LINE
  5
6B2
330
1FF
100
AcDbEntity
  8
0
  6
Continuous
 62
     7
100
AcDbLine
 10
4245.149169921901
 20
2341.3507080078
 30
0.0
 11
4557.226074218799
 21
2530.5810546875
 31
0.0
  0
LINE
  5
6B3
330
1FF
100
AcDbEntity
  8
0
  6
Continuous
 62
     7
100
AcDbLine
 10
2675.1682128906
 20
1256.4013671875
 30
0.0
 11
4304.10546875
 21
2244.1201171875
 31
0.0
  0
LINE
  5
6B4
330
1FF
100
AcDbEntity
  8
0
  6
Continuous
 62
     7
100
AcDbLine
 10
2686.1005859375
 20
1238.3537597656
 30
0.0
 11
4552.1452636719
 21
2369.8447265625
 31
0.0
  0
LINE
  5
6B5
330
1FF
100
AcDbEntity
  8
0
  6
Continuous
 62
     7
100
AcDbLine
 10
2687.1748046875
 20
1236.6000976562
 30
0.0
 11
4316.112060546901
 21
2224.3190917969
 31
0.0
  0
LINE
  5
6B6
330
1FF
100
AcDbEntity
  8
0
  6
Continuous
 62
     7
100
AcDbLine
 10
2692.306640625
 20
1228.1369628906
 30
0.0
 11
4321.243774414099
 21
2215.8557128906
 31
0.0
  0
LINE
  5
6B7
330
1FF
100
AcDbEntity
  8
0
  6
Continuous
 62
     7
100
AcDbLine
 10
977.3681640625
 20
921.8640136719001
 30
0.0
 11
995.37890625
 21
930.3239746094
 31
0.0
  0
LINE
  5
6B8
330
1FF
100
AcDbEntity
  8
0
  6
Continuous
 62
     7
100
AcDbLine
 10
4828.1748657227
 20
6325.66015625
 30
0.0
 11
4957.7154541016
 21
6348.6101074219
 31
0.0
  0
LINE
  5
6B9
330
1FF
100
AcDbEntity
  8
0
  6
Continuous
 62
     7
100
AcDbLine
 10
4799.437622070301
 20
6223.0532226562
 30
0.0
 11
5367.3930053711
 21
6281.4240722656
 31
0.0
  0
LINE
  5
6BA
330
1FF
100
AcDbEntity
  8
0
  6
Continuous
 62
     7
100
AcDbLine
 10
4859.338623046901
 20
6247.0346679688
 30
0.0
 11
5002.1520996094
 21
6261.7121582031
 31
0.0
  0
LINE
  5
6BB
330
1FF
100
AcDbEntity
  8
0
  6
Continuous
 62
     7
100
AcDbLine
 10
5173.6258239746
 20
6279.3344726562
 30
0.0
 11
5192.7504272461
 21
6281.3005371094
 31
0.0
  0
LINE
  5
6BC
330
1FF
100
AcDbEntity
  8
0
  6
Continuous
 62
     7
100
AcDbLine
 10
4671.9387817383
 20
6174.41796875
 30
0.0
 11
5301.6192016602
 21
6215.5
 31
0.0
  0
LINE
  5
6BD
330
1FF
100
AcDbEntity
  8
0
  6
Continuous
 62
     7
100
AcDbLine
 10
293.0869140625
 20
6066.2546386719
 30
0.0
 11
572.4873046875
 21
6066.2546386719
 31
0.0
  0
LINE
  5
6BE
330
1FF
100
AcDbEntity
  8
0
  6
Continuous
 62
     7
100
AcDbLine
 10
9846.620605468801
 20
6068.2221679688
 30
0.0
 11
9865.744628906302
 21
6068.2221679688
 31
0.0
  0
LINE
  5
6BF
330
1FF
100
AcDbEntity
  8
0
  6
Continuous
 62
     7
100
AcDbLine
 10
10032.0571289062
 20
6068.2221679688
 30
0.0
 11
10079.6655273438
 21
6068.2221679688
 31
0.0
  0
LINE
  5
6C0
330
1FF
100
AcDbEntity
  8
0
  6
Continuous
 62
     7
100
AcDbLine
 10
259.0249023437
 20
6071.4387207031
 30
0.0
 11
293.11328125
 21
6071.4387207031
 31
0.0
  0
LINE
  5
6C1
330
1FF
100
AcDbEntity
  8
0
  6
Continuous
 62
     7
100
AcDbLine
 10
9846.620605468801
 20
6086.487060546899
 30
0.0
 11
9865.749023437501
 21
6086.487060546899
 31
0.0
  0
LINE
  5
6C2
330
1FF
100
AcDbEntity
  8
0
  6
Continuous
 62
     7
100
AcDbLine
 10
10032.0615234375
 20
6086.487060546899
 30
0.0
 11
10079.6655273438
 21
6086.487060546899
 31
0.0
  0
LINE
  5
6C3
330
1FF
100
AcDbEntity
  8
0
  6
Continuous
 62
     7
100
AcDbLine
 10
765.8588867188
 20
6092.5324707031
 30
0.0
 11
773.9506835938
 21
6092.5324707031
 31
0.0
  0
LINE
  5
6C4
330
1FF
100
AcDbEntity
  8
0
  6
Continuous
 62
     7
100
AcDbLine
 10
10171.0673828125
 20
6092.5324707031
 30
0.0
 11
10232.5170898438
 21
6092.5324707031
 31
0.0
  0
LINE
  5
6C5
330
1FF
100
AcDbEntity
  8
0
  6
Continuous
 62
     7
100
AcDbLine
 10
9846.620605468801
 20
6092.9995117188
 30
0.0
 11
9865.747070312501
 21
6092.9995117188
 31
0.0
  0
LINE
  5
6C6
330
1FF
100
AcDbEntity
  8
0
  6
Continuous
 62
     7
100
AcDbLine
 10
10032.0595703125
 20
6092.9995117188
 30
0.0
 11
10079.6655273438
 21
6092.9995117188
 31
0.0
  0
LINE
  5
6C7
330
1FF
100
AcDbEntity
  8
0
  6
Continuous
 62
     7
100
AcDbLine
 10
918.7104492188
 20
6120.507080078101
 30
0.0
 11
1151.7553710938
 21
6120.507080078101
 31
0.0
  0
LINE
  5
6C8
330
1FF
100
AcDbEntity
  8
0
  6
Continuous
 62
     7
100
AcDbLine
 10
9846.620605468801
 20
6127.396484375
 30
0.0
 11
9865.7524414063
 21
6127.396484375
 31
0.0
  0
LINE
  5
6C9
330
1FF
100
AcDbEntity
  8
0
  6
Continuous
 62
     7
100
AcDbLine
 10
10032.064453125
 20
6127.396484375
 30
0.0
 11
10079.6655273438
 21
6127.396484375
 31
0.0
  0
LINE
  5
6CA
330
1FF
100
AcDbEntity
  8
0
  6
Continuous
 62
     7
100
AcDbLine
 10
9846.620605468801
 20
6144.748046875
 30
0.0
 11
9865.749023437501
 21
6144.748046875
 31
0.0
  0
LINE
  5
6CB
330
1FF
100
AcDbEntity
  8
0
  6
Continuous
 62
     7
100
AcDbLine
 10
10032.0610351562
 20
6144.748046875
 30
0.0
 11
10079.6655273438
 21
6144.748046875
 31
0.0
  0
LINE
  5
6CC
330
1FF
100
AcDbEntity
  8
0
  6
Continuous
 62
     7
100
AcDbLine
 10
9846.620605468801
 20
6153.7119140625
 30
0.0
 11
9865.754882812501
 21
6153.7119140625
 31
0.0
  0
LINE
  5
6CD
330
1FF
100
AcDbEntity
  8
0
  6
Continuous
 62
     7
100
AcDbLine
 10
10032.06640625
 20
6153.7119140625
 30
0.0
 11
10079.6655273438
 21
6153.7119140625
 31
0.0
  0
LINE
  5
6CE
330
1FF
100
AcDbEntity
  8
0
  6
Continuous
 62
     7
100
AcDbLine
 10
195.5122070312
 20
6153.7905273438
 30
0.0
 11
259.0122070313
 21
6153.7905273438
 31
0.0
  0
LINE
  5
6CF
330
1FF
100
AcDbEntity
  8
0
  6
Continuous
 62
     7
100
AcDbLine
 10
10859.1669921875
 20
6174.41796875
 30
0.0
 11
10904.8974609375
 21
6174.41796875
 31
0.0
  0
LINE
  5
6D0
330
1FF
100
AcDbEntity
  8
0
  6
Continuous
 62
     7
100
AcDbLine
 10
607.94921875
 20
6177.7719726562
 30
0.0
 11
671.44921875
 21
6177.7719726562
 31
0.0
  0
LINE
  5
6D1
330
1FF
100
AcDbEntity
  8
0
  6
Continuous
 62
     7
100
AcDbLine
 10
9846.620605468801
 20
6179.648681640601
 30
0.0
 11
9865.7529296875
 21
6179.648681640601
 31
0.0
  0
LINE
  5
6D2
330
1FF
100
AcDbEntity
  8
0
  6
Continuous
 62
     7
100
AcDbLine
 10
10032.064453125
 20
6179.648681640601
 30
0.0
 11
10079.6655273438
 21
6179.648681640601
 31
0.0
  0
LINE
  5
6D3
330
1FF
100
AcDbEntity
  8
0
  6
Continuous
 62
     7
100
AcDbLine
 10
9846.620605468801
 20
6185.8139648438
 30
0.0
 11
9865.7587890625
 21
6185.8139648438
 31
0.0
  0
LINE
  5
6D4
330
1FF
100
AcDbEntity
  8
0
  6
Continuous
 62
     7
100
AcDbLine
 10
10032.0444335938
 20
6185.8139648438
 30
0.0
 11
10079.6655273438
 21
6185.8139648438
 31
0.0
  0
LINE
  5
6D5
330
1FF
100
AcDbEntity
  8
0
  6
Continuous
 62
     7
100
AcDbLine
 10
9846.620605468801
 20
6214.88671875
 30
0.0
 11
9865.757324218801
 21
6214.88671875
 31
0.0
  0
LINE
  5
6D6
330
1FF
100
AcDbEntity
  8
0
  6
Continuous
 62
     7
100
AcDbLine
 10
10032.0444335938
 20
6214.88671875
 30
0.0
 11
10079.6655273438
 21
6214.88671875
 31
0.0
  0
LINE
  5
6D7
330
1FF
100
AcDbEntity
  8
0
  6
Continuous
 62
     7
100
AcDbLine
 10
93.478515625
 20
6215.5
 30
0.0
 11
139.208984375
 21
6215.5
 31
0.0
  0
LINE
  5
6D8
330
1FF
100
AcDbEntity
  8
0
  6
Continuous
 62
     7
100
AcDbLine
 10
10859.1669921875
 20
6215.5
 30
0.0
 11
10904.8974609375
 21
6215.5
 31
0.0
  0
LINE
  5
6D9
330
1FF
100
AcDbEntity
  8
0
  6
Continuous
 62
     7
100
AcDbLine
 10
1220.37109375
 20
6219.5246582031
 30
0.0
 11
1260.5263671875
 21
6219.5246582031
 31
0.0
  0
LINE
  5
6DA
330
1FF
100
AcDbEntity
  8
0
  6
Continuous
 62
     7
100
AcDbLine
 10
9737.849609375
 20
6219.5246582031
 30
0.0
 11
9778.004882812501
 21
6219.5246582031
 31
0.0
  0
LINE
  5
6DB
330
1FF
100
AcDbEntity
  8
0
  6
Continuous
 62
     7
100
AcDbLine
 10
293.0869140625
 20
6226.1545410156
 30
0.0
 11
572.4873046875
 21
6226.1545410156
 31
0.0
  0
LINE
  5
6DC
330
1FF
100
AcDbEntity
  8
0
  6
Continuous
 62
     7
100
AcDbLine
 10
184.7172851563
 20
6233.759521484399
 30
0.0
 11
195.5712890625
 21
6233.759521484399
 31
0.0
  0
LINE
  5
6DD
330
1FF
100
AcDbEntity
  8
0
  6
Continuous
 62
     7
100
AcDbLine
 10
259.0122070313
 20
6233.759521484399
 30
0.0
 11
293.1645507813
 21
6233.759521484399
 31
0.0
  0
LINE
  5
6DE
330
1FF
100
AcDbEntity
  8
0
  6
Continuous
 62
     7
100
AcDbLine
 10
572.4873046875
 20
6233.759521484399
 30
0.0
 11
607.94921875
 21
6233.759521484399
 31
0.0
  0
LINE
  5
6DF
330
1FF
100
AcDbEntity
  8
0
  6
Continuous
 62
     7
100
AcDbLine
 10
671.44921875
 20
6233.759521484399
 30
0.0
 11
686.6831054687
 21
6233.759521484399
 31
0.0
  0
LINE
  5
6E0
330
1FF
100
AcDbEntity
  8
0
  6
Continuous
 62
     7
100
AcDbLine
 10
10311.6928710938
 20
6233.759521484399
 30
0.0
 11
10323.8696289062
 21
6233.759521484399
 31
0.0
  0
LINE
  5
6E1
330
1FF
100
AcDbEntity
  8
0
  6
Continuous
 62
     7
100
AcDbLine
 10
10811.9741210938
 20
6233.759521484399
 30
0.0
 11
10813.6586914063
 21
6233.759521484399
 31
0.0
  0
LINE
  5
6E2
330
1FF
100
AcDbEntity
  8
0
  6
Continuous
 62
     7
100
AcDbLine
 10
9846.620605468801
 20
6236.8310546875
 30
0.0
 11
9865.761230468802
 21
6236.8310546875
 31
0.0
  0
LINE
  5
6E3
330
1FF
100
AcDbEntity
  8
0
  6
Continuous
 62
     7
100
AcDbLine
 10
10032.0444335938
 20
6236.8310546875
 30
0.0
 11
10079.6655273438
 21
6236.8310546875
 31
0.0
  0
LINE
  5
6E4
330
1FF
100
AcDbEntity
  8
0
  6
Continuous
 62
     7
100
AcDbLine
 10
918.7104492188
 20
6238.7353515625
 30
0.0
 11
1151.7553710938
 21
6238.7353515625
 31
0.0
  0
LINE
  5
6E5
330
1FF
100
AcDbEntity
  8
0
  6
Continuous
 62
     7
100
AcDbLine
 10
918.7104492188
 20
6251.2490234375
 30
0.0
 11
1151.7553710938
 21
6251.2490234375
 31
0.0
  0
LINE
  5
6E6
330
1FF
100
AcDbEntity
  8
0
  6
Continuous
 62
     7
100
AcDbLine
 10
9846.620605468801
 20
6251.2490234375
 30
0.0
 11
9865.7661132812
 21
6251.2490234375
 31
0.0
  0
LINE
  5
6E7
330
1FF
100
AcDbEntity
  8
0
  6
Continuous
 62
     7
100
AcDbLine
 10
10032.0444335938
 20
6251.2490234375
 30
0.0
 11
10079.6655273438
 21
6251.2490234375
 31
0.0
  0
LINE
  5
6E8
330
1FF
100
AcDbEntity
  8
0
  6
Continuous
 62
     7
100
AcDbLine
 10
10323.857421875
 20
6254.502197265601
 30
0.0
 11
10628.6572265625
 21
6254.502197265601
 31
0.0
  0
LINE
  5
6E9
330
1FF
100
AcDbEntity
  8
0
  6
Continuous
 62
     7
100
AcDbLine
 10
10507.162109375
 20
6255.188232421899
 30
0.0
 11
10811.9619140625
 21
6255.188232421899
 31
0.0
  0
LINE
  5
6EA
330
1FF
100
AcDbEntity
  8
0
  6
Continuous
 62
     7
100
AcDbLine
 10
9865.719238281201
 20
6265.516113281201
 30
0.0
 11
10032.0444335938
 21
6265.516113281201
 31
0.0
  0
LINE
  5
6EB
330
1FF
100
AcDbEntity
  8
DEFAULT_1
  6
CENTER
 62
     7
100
AcDbLine
 10
4697.452209472699
 20
6270.9719238281
 30
0.0
 11
4600.700805664099
 21
6270.9719238281
 31
0.0
  0
LINE
  5
6EC
330
1FF
100
AcDbEntity
  8
DEFAULT_1
  6
CENTER
 62
     7
100
AcDbLine
 10
736.8798828125
 20
6270.9719238281
 30
0.0
 11
686.6831054687
 21
6270.9719238281
 31
0.0
  0
LINE
  5
6ED
330
1FF
100
AcDbEntity
  8
DEFAULT_1
  6
CENTER
 62
     7
100
AcDbLine
 10
184.7172851563
 20
6270.9719238281
 30
0.0
 11
134.5209960937
 21
6270.9719238281
 31
0.0
  0
LINE
  5
6EE
330
1FF
100
AcDbEntity
  8
DEFAULT_1
  6
CENTER
 62
     7
100
AcDbLine
 10
259.0122070313
 20
6270.9719238281
 30
0.0
 11
195.5639648438
 21
6270.9719238281
 31
0.0
  0
LINE
  5
6EF
330
1FF
100
AcDbEntity
  8
DEFAULT_1
  6
CENTER
 62
     7
100
AcDbLine
 10
572.4873046875
 20
6270.9719238281
 30
0.0
 11
293.1616210937
 21
6270.9719238281
 31
0.0
  0
LINE
  5
6F0
330
1FF
100
AcDbEntity
  8
DEFAULT_1
  6
CENTER
 62
     7
100
AcDbLine
 10
671.44921875
 20
6270.9719238281
 30
0.0
 11
608.0078125
 21
6270.9719238281
 31
0.0
  0
LINE
  5
6F1
330
1FF
100
AcDbEntity
  8
0
  6
Continuous
 62
     7
100
AcDbLine
 10
184.7172851563
 20
6270.9719238281
 30
0.0
 11
195.5639648438
 21
6270.9719238281
 31
0.0
  0
LINE
  5
6F2
330
1FF
100
AcDbEntity
  8
0
  6
Continuous
 62
     7
100
AcDbLine
 10
259.0122070313
 20
6270.9719238281
 30
0.0
 11
293.1616210937
 21
6270.9719238281
 31
0.0
  0
LINE
  5
6F3
330
1FF
100
AcDbEntity
  8
0
  6
Continuous
 62
     7
100
AcDbLine
 10
572.4873046875
 20
6270.9719238281
 30
0.0
 11
608.0078125
 21
6270.9719238281
 31
0.0
  0
LINE
  5
6F4
330
1FF
100
AcDbEntity
  8
0
  6
Continuous
 62
     7
100
AcDbLine
 10
671.44921875
 20
6270.9719238281
 30
0.0
 11
686.6831054687
 21
6270.9719238281
 31
0.0
  0
LINE
  5
6F5
330
1FF
100
AcDbEntity
  8
DEFAULT_1
  6
CENTER
 62
     7
100
AcDbLine
 10
10261.49609375
 20
6270.9719238281
 30
0.0
 11
10311.6928710938
 21
6270.9719238281
 31
0.0
  0
LINE
  5
6F6
330
1FF
100
AcDbEntity
  8
DEFAULT_1
  6
CENTER
 62
     7
100
AcDbLine
 10
10323.8701171875
 20
6270.9719238281
 30
0.0
 11
10811.97265625
 21
6270.9719238281
 31
0.0
  0
LINE
  5
6F7
330
1FF
100
AcDbEntity
  8
DEFAULT_1
  6
CENTER
 62
     7
100
AcDbLine
 10
10813.6586914063
 20
6270.9719238281
 30
0.0
 11
10863.8549804688
 21
6270.9719238281
 31
0.0
  0
LINE
  5
6F8
330
1FF
100
AcDbEntity
  8
0
  6
Continuous
 62
     7
100
AcDbLine
 10
10311.6928710938
 20
6270.9719238281
 30
0.0
 11
10323.8701171875
 21
6270.9719238281
 31
0.0
  0
LINE
  5
6F9
330
1FF
100
AcDbEntity
  8
0
  6
Continuous
 62
     7
100
AcDbLine
 10
10811.97265625
 20
6270.9719238281
 30
0.0
 11
10813.6586914063
 21
6270.9719238281
 31
0.0
  0
LINE
  5
6FA
330
1FF
100
AcDbEntity
  8
0
  6
Continuous
 62
     7
100
AcDbLine
 10
195.5122070312
 20
6281.4240722656
 30
0.0
 11
259.0122070313
 21
6281.4240722656
 31
0.0
  0
LINE
  5
6FB
330
1FF
100
AcDbEntity
  8
0
  6
Continuous
 62
     7
100
AcDbLine
 10
10323.857421875
 20
6281.7788085937
 30
0.0
 11
10507.162109375
 21
6281.7788085937
 31
0.0
  0
LINE
  5
6FC
330
1FF
100
AcDbEntity
  8
0
  6
Continuous
 62
     7
100
AcDbLine
 10
10326.9267578125
 20
6282.46484375
 30
0.0
 11
10390.4267578125
 21
6282.46484375
 31
0.0
  0
LINE
  5
6FD
330
1FF
100
AcDbEntity
  8
0
  6
Continuous
 62
     7
100
AcDbLine
 10
10507.162109375
 20
6282.46484375
 30
0.0
 11
10811.9619140625
 21
6282.46484375
 31
0.0
  0
LINE
  5
6FE
330
1FF
100
AcDbEntity
  8
0
  6
Continuous
 62
     7
100
AcDbLine
 10
715.0590820311999
 20
6290.4108886719
 30
0.0
 11
765.8588867188
 21
6290.4108886719
 31
0.0
  0
LINE
  5
6FF
330
1FF
100
AcDbEntity
  8
0
  6
Continuous
 62
     7
100
AcDbLine
 10
10232.5170898438
 20
6290.4108886719
 30
0.0
 11
10283.3168945312
 21
6290.4108886719
 31
0.0
  0
LINE
  5
700
330
1FF
100
AcDbEntity
  8
0
  6
Continuous
 62
     7
100
AcDbLine
 10
827.3085937499999
 20
6291.7504882812
 30
0.0
 11
878.1083984374999
 21
6291.7504882812
 31
0.0
  0
LINE
  5
701
330
1FF
100
AcDbEntity
  8
0
  6
Continuous
 62
     7
100
AcDbLine
 10
10120.267578125
 20
6291.7504882812
 30
0.0
 11
10171.0673828125
 21
6291.7504882812
 31
0.0
  0
LINE
  5
702
330
1FF
100
AcDbEntity
  8
0
  6
Continuous
 62
     7
100
AcDbLine
 10
607.94921875
 20
6305.405517578101
 30
0.0
 11
671.44921875
 21
6305.405517578101
 31
0.0
  0
LINE
  5
703
330
1FF
100
AcDbEntity
  8
0
  6
Continuous
 62
     7
100
AcDbLine
 10
184.7172851563
 20
6308.1833496094
 30
0.0
 11
195.515625
 21
6308.1833496094
 31
0.0
  0
LINE
  5
704
330
1FF
100
AcDbEntity
  8
0
  6
Continuous
 62
     7
100
AcDbLine
 10
259.0161132812
 20
6308.1833496094
 30
0.0
 11
293.1635742187
 21
6308.1833496094
 31
0.0
  0
LINE
  5
705
330
1FF
100
AcDbEntity
  8
0
  6
Continuous
 62
     7
100
AcDbLine
 10
572.4873046875
 20
6308.1833496094
 30
0.0
 11
607.958984375
 21
6308.1833496094
 31
0.0
  0
LINE
  5
706
330
1FF
100
AcDbEntity
  8
0
  6
Continuous
 62
     7
100
AcDbLine
 10
671.4594726562999
 20
6308.1833496094
 30
0.0
 11
686.6831054687
 21
6308.1833496094
 31
0.0
  0
LINE
  5
707
330
1FF
100
AcDbEntity
  8
0
  6
Continuous
 62
     7
100
AcDbLine
 10
10311.6928710938
 20
6308.1833496094
 30
0.0
 11
10326.9350585938
 21
6308.1833496094
 31
0.0
  0
LINE
  5
708
330
1FF
100
AcDbEntity
  8
0
  6
Continuous
 62
     7
100
AcDbLine
 10
10390.4350585938
 20
6308.1833496094
 30
0.0
 11
10508.8588867188
 21
6308.1833496094
 31
0.0
  0
LINE
  5
709
330
1FF
100
AcDbEntity
  8
0
  6
Continuous
 62
     7
100
AcDbLine
 10
10668.1694335938
 20
6308.1833496094
 30
0.0
 11
10739.3715820313
 21
6308.1833496094
 31
0.0
  0
LINE
  5
70A
330
1FF
100
AcDbEntity
  8
0
  6
Continuous
 62
     7
100
AcDbLine
 10
10802.8715820313
 20
6308.1833496094
 30
0.0
 11
10813.6586914063
 21
6308.1833496094
 31
0.0
  0
LINE
  5
70B
330
1FF
100
AcDbEntity
  8
0
  6
Continuous
 62
     7
100
AcDbLine
 10
195.5122070312
 20
6348.9763183594
 30
0.0
 11
259.0122070313
 21
6348.9763183594
 31
0.0
  0
LINE
  5
70C
330
1FF
100
AcDbEntity
  8
0
  6
Continuous
 62
     7
100
AcDbLine
 10
10739.3637695312
 20
6348.9763183594
 30
0.0
 11
10802.8637695313
 21
6348.9763183594
 31
0.0
  0
LINE
  5
70D
330
1FF
100
AcDbEntity
  8
0
  6
Continuous
 62
     7
100
AcDbLine
 10
293.0869140625
 20
6354.59765625
 30
0.0
 11
572.4873046875
 21
6354.59765625
 31
0.0
  0
LINE
  5
70E
330
1FF
100
AcDbEntity
  8
0
  6
Continuous
 62
     7
100
AcDbLine
 10
607.94921875
 20
6372.95703125
 30
0.0
 11
671.44921875
 21
6372.95703125
 31
0.0
  0
LINE
  5
70F
330
1FF
100
AcDbEntity
  8
0
  6
Continuous
 62
     7
100
AcDbLine
 10
10326.9267578125
 20
6372.95703125
 30
0.0
 11
10390.4267578125
 21
6372.95703125
 31
0.0
  0
LINE
  5
710
330
1FF
100
AcDbEntity
  8
0
  6
Continuous
 62
     7
100
AcDbLine
 10
10435.2822265625
 20
6396.911865234399
 30
0.0
 11
10508.8618164063
 21
6396.911865234399
 31
0.0
  0
LINE
  5
711
330
1FF
100
AcDbEntity
  8
0
  6
Continuous
 62
     7
100
AcDbLine
 10
10668.1723632813
 20
6396.911865234399
 30
0.0
 11
10689.2817382813
 21
6396.911865234399
 31
0.0
  0
LINE
  5
712
330
1FF
100
AcDbEntity
  8
0
  6
Continuous
 62
     7
100
AcDbLine
 10
10425.888671875
 20
6401.4428710938
 30
0.0
 11
10435.318359375
 21
6401.4428710938
 31
0.0
  0
LINE
  5
713
330
1FF
100
AcDbEntity
  8
0
  6
Continuous
 62
     7
100
AcDbLine
 10
10689.2998046875
 20
6401.4428710938
 30
0.0
 11
10705.2890625
 21
6401.4428710938
 31
0.0
  0
LINE
  5
714
330
1FF
100
AcDbEntity
  8
0
  6
Continuous
 62
     7
100
AcDbLine
 10
293.0869140625
 20
6444.4162597656
 30
0.0
 11
572.4873046875
 21
6444.4162597656
 31
0.0
  0
LINE
  5
715
330
1FF
100
AcDbEntity
  8
0
  6
Continuous
 62
     7
100
AcDbLine
 10
293.0869140625
 20
6448.523193359399
 30
0.0
 11
572.4873046875
 21
6448.523193359399
 31
0.0
  0
LINE
  5
716
330
1FF
100
AcDbEntity
  8
0
  6
Continuous
 62
     7
100
AcDbLine
 10
10425.888671875
 20
6448.523193359399
 30
0.0
 11
10435.3286132812
 21
6448.523193359399
 31
0.0
  0
LINE
  5
717
330
1FF
100
AcDbEntity
  8
0
  6
Continuous
 62
     7
100
AcDbLine
 10
10689.2817382813
 20
6448.523193359399
 30
0.0
 11
10705.2890625
 21
6448.523193359399
 31
0.0
  0
LINE
  5
718
330
1FF
100
AcDbEntity
  8
0
  6
Continuous
 62
     7
100
AcDbLine
 10
4972.533325195301
 20
6296.6066894531
 30
0.0
 11
5194.4388122559
 21
6277.5437011719
 31
0.0
  0
LINE
  5
719
330
1FF
100
AcDbEntity
  8
0
  6
Continuous
 62
     7
100
AcDbLine
 10
4777.336791992199
 20
6812.9541015625
 30
0.0
 11
4958.4173583984
 21
6715.1499023438
 31
0.0
  0
LINE
  5
71A
330
1FF
100
AcDbEntity
  8
0
  6
Continuous
 62
     7
100
AcDbLine
 10
5535.670089721701
 20
7797.7888183594
 30
0.0
 11
5536.8367538452
 21
7795.6887207031
 31
0.0
  0
LINE
  5
71B
330
1FF
100
AcDbEntity
  8
0
  6
Continuous
 62
     7
100
AcDbLine
 10
5855.8325500488
 20
8911.745849609399
 30
0.0
 11
5791.312286376999
 21
9181.066162109399
 31
0.0
  0
LINE
  5
71C
330
1FF
100
AcDbEntity
  8
0
  6
Continuous
 62
     7
100
AcDbLine
 10
8751.1708984375
 20
8790.447021484398
 30
0.0
 11
8748.820312499999
 21
8784.075927734399
 31
0.0
  0
LINE
  5
71D
330
1FF
100
AcDbEntity
  8
0
  6
Continuous
 62
     7
100
AcDbLine
 10
8751.160400390601
 20
8790.3615722656
 30
0.0
 11
8748.766113281199
 21
8783.961181640602
 31
0.0
  0
LINE
  5
71E
330
1FF
100
AcDbEntity
  8
0
  6
Continuous
 62
     7
100
AcDbLine
 10
8753.0546875
 20
6188.855224609399
 30
0.0
 11
8635.678710937501
 21
6014.8828125
 31
0.0
  0
LINE
  5
71F
330
1FF
100
AcDbEntity
  8
0
  6
Continuous
 62
     7
100
AcDbLine
 10
8567.1821289062
 20
6063.3601074219
 30
0.0
 11
8681.448974609399
 21
6232.6813964844
 31
0.0
  0
LINE
  5
720
330
1FF
100
AcDbEntity
  8
0
  6
Continuous
 62
     7
100
AcDbLine
 10
8509.27734375
 20
5979.224609375
 30
0.0
 11
8567.1821289062
 21
6063.3601074219
 31
0.0
  0
LINE
  5
721
330
1FF
100
AcDbEntity
  8
0
  6
Continuous
 62
     7
100
AcDbLine
 10
8635.678710937501
 20
6014.8828125
 30
0.0
 11
8576.1640625
 21
5928.4602050781
 31
0.0
  0
LINE
  5
722
330
1FF
100
AcDbEntity
  8
0
  6
Continuous
 62
     7
100
AcDbLine
 10
8420.555664062501
 20
5854.3283691406
 30
0.0
 11
8509.27734375
 21
5979.224609375
 31
0.0
  0
LINE
  5
723
330
1FF
100
AcDbEntity
  8
0
  6
Continuous
 62
     7
100
AcDbLine
 10
8576.1640625
 20
5928.4602050781
 30
0.0
 11
8484.913574218801
 21
5800.2138671875
 31
0.0
  0
LINE
  5
724
330
1FF
100
AcDbEntity
  8
0
  6
Continuous
 62
     7
100
AcDbLine
 10
8351.945312499999
 20
5762.1606445312
 30
0.0
 11
8420.555664062501
 21
5854.3283691406
 31
0.0
  0
LINE
  5
725
330
1FF
100
AcDbEntity
  8
0
  6
Continuous
 62
     7
100
AcDbLine
 10
8484.913574218801
 20
5800.2138671875
 30
0.0
 11
8414.302734375
 21
5705.6130371094
 31
0.0
  0
LINE
  5
726
330
1FF
100
AcDbEntity
  8
0
  6
Continuous
 62
     7
100
AcDbLine
 10
8281.008056640601
 20
5671.7729492188
 30
0.0
 11
8351.945312499999
 21
5762.1606445312
 31
0.0
  0
LINE
  5
727
330
1FF
100
AcDbEntity
  8
0
  6
Continuous
 62
     7
100
AcDbLine
 10
8414.302734375
 20
5705.6130371094
 30
0.0
 11
8341.256591796899
 21
5612.880126953101
 31
0.0
  0
LINE
  5
728
330
1FF
100
AcDbEntity
  8
0
  6
Continuous
 62
     7
100
AcDbLine
 10
8341.256591796899
 20
5612.880126953101
 30
0.0
 11
8265.240234374999
 21
5522.5682373047
 31
0.0
  0
LINE
  5
729
330
1FF
100
AcDbEntity
  8
0
  6
Continuous
 62
     7
100
AcDbLine
 10
4861.4172363281
 20
1871.5628662109
 30
0.0
 11
5927.612182617199
 21
2699.4668579102
 31
0.0
  0
LINE
  5
72A
330
1FF
100
AcDbEntity
  8
0
  6
Continuous
 62
     7
100
AcDbLine
 10
5851.7710418701
 20
2609.1840209961
 30
0.0
 11
5953.0066223145
 21
2687.7942504883
 31
0.0
  0
LINE
  5
72B
330
1FF
100
AcDbEntity
  8
0
  6
Continuous
 62
     7
100
AcDbLine
 10
4886.8120727539
 20
1859.8898925781
 30
0.0
 11
5248.8997192383
 21
2141.0522460938
 31
0.0
  0
LINE
  5
72C
330
1FF
100
AcDbEntity
  8
0
  6
Continuous
 62
     7
100
AcDbLine
 10
5507.0566864014
 20
2341.5122070312
 30
0.0
 11
5798.0280609131
 21
2567.4523925781
 31
0.0
  0
LINE
  5
72D
330
1FF
100
AcDbEntity
  8
0
  6
Continuous
 62
     7
100
AcDbLine
 10
2866.4729003906
 20
940.9033203125
 30
0.0
 11
4495.4102783203
 21
1928.6221923828
 31
0.0
  0
LINE
  5
72E
330
1FF
100
AcDbEntity
  8
0
  6
Continuous
 62
     7
100
AcDbLine
 10
4497.8525390625
 20
1924.5942382812
 30
0.0
 11
4538.903930664099
 21
1949.4859619141
 31
0.0
  0
LINE
  5
72F
330
1FF
100
AcDbEntity
  8
0
  6
Continuous
 62
     7
100
AcDbLine
 10
4497.8525390625
 20
1924.5942382812
 30
0.0
 11
4538.907104492198
 21
1949.4877929688
 31
0.0
  0
LINE
  5
730
330
1FF
100
AcDbEntity
  8
0
  6
Continuous
 62
     7
100
AcDbLine
 10
2874.3791503906
 20
927.8645019530999
 30
0.0
 11
2987.3063964844
 21
996.3391113281
 31
0.0
  0
LINE
  5
731
330
1FF
100
AcDbEntity
  8
0
  6
Continuous
 62
     7
100
AcDbLine
 10
708.0415039062
 20
873.66796875
 30
0.0
 11
977.3618164063
 21
986.5832519531
 31
0.0
  0
LINE
  5
732
330
1FF
100
AcDbEntity
  8
0
  6
Continuous
 62
     7
100
AcDbLine
 10
815.9267578125
 20
6232.6813964844
 30
0.0
 11
798.8876953125
 21
6230.7885742188
 31
0.0
  0
LINE
  5
733
330
1FF
100
AcDbEntity
  8
0
  6
Continuous
 62
     7
100
AcDbLine
 10
815.9267578125
 20
6188.855224609399
 30
0.0
 11
831.0590820313001
 21
6190.3344726562
 31
0.0
  0
LINE
  5
734
330
1FF
100
AcDbEntity
  8
0
  6
Continuous
 62
     7
100
AcDbLine
 10
815.9267578125
 20
6188.855224609399
 30
0.0
 11
831.0629882813
 21
6190.3276367187
 31
0.0
  0
LINE
  5
735
330
1FF
100
AcDbEntity
  8
0
  6
Continuous
 62
     7
100
AcDbLine
 10
815.9267578125
 20
6232.6813964844
 30
0.0
 11
800.7900390625
 21
6231.208984375
 31
0.0
  0
LINE
  5
736
330
1FF
100
AcDbEntity
  8
0
  6
Continuous
 62
     7
100
AcDbLine
 10
309.0942382813
 20
6533.8493652344
 30
0.0
 11
563.0937499999999
 21
6533.8493652344
 31
0.0
  0
LINE
  5
737
330
1FF
100
AcDbEntity
  8
0
  6
Continuous
 62
     7
100
AcDbLine
 10
10435.2822265625
 20
6533.8493652344
 30
0.0
 11
10508.8754882812
 21
6533.8493652344
 31
0.0
  0
LINE
  5
738
330
1FF
100
AcDbEntity
  8
0
  6
Continuous
 62
     7
100
AcDbLine
 10
10668.1635742188
 20
6533.8493652344
 30
0.0
 11
10689.2817382813
 21
6533.8493652344
 31
0.0
  0
LINE
  5
739
330
1FF
100
AcDbEntity
  8
0
  6
Continuous
 62
     7
100
AcDbLine
 10
966.3315429686999
 20
6715.1499023438
 30
0.0
 11
1132.6567382812
 21
6715.1499023438
 31
0.0
  0
LINE
  5
73A
330
1FF
100
AcDbEntity
  8
0
  6
Continuous
 62
     7
100
AcDbLine
 10
966.3315429686999
 20
6812.9541015625
 30
0.0
 11
1132.6567382812
 21
6812.9541015625
 31
0.0
  0
LINE
  5
73B
330
1FF
100
AcDbEntity
  8
0
  6
Continuous
 62
     7
100
AcDbLine
 10
9865.719238281201
 20
6812.9541015625
 30
0.0
 11
10032.0444335938
 21
6812.9541015625
 31
0.0
  0
LINE
  5
73C
330
1FF
100
AcDbEntity
  8
0
  6
Continuous
 62
     7
100
AcDbLine
 10
10182.44921875
 20
6232.6813964844
 30
0.0
 11
10199.4418945313
 21
6230.7993164062
 31
0.0
  0
LINE
  5
73D
330
1FF
100
AcDbEntity
  8
0
  6
Continuous
 62
     7
100
AcDbLine
 10
10182.44921875
 20
6232.6813964844
 30
0.0
 11
10199.4931640625
 21
6230.7924804687
 31
0.0
  0
LINE
  5
73E
330
1FF
100
AcDbEntity
  8
0
  6
Continuous
 62
     7
100
AcDbLine
 10
5060.296875
 20
7806.188720703101
 30
0.0
 11
4570.328247070301
 21
8359.399169921898
 31
0.0
  0
LINE
  5
740
330
1FF
100
AcDbEntity
  8
0
  6
Continuous
 62
     7
100
AcDbLine
 10
8060.5598144531
 20
3387.4459838867
 30
0.0
 11
8018.462158203099
 21
3479.1104888916
 31
0.0
  0
LINE
  5
741
330
1FF
100
AcDbEntity
  8
0
  6
Continuous
 62
     7
100
AcDbLine
 10
8060.5598144531
 20
8963.896728515601
 30
0.0
 11
8058.9309082031
 21
8944.444091796899
 31
0.0
  0
LINE
  5
742
330
1FF
100
AcDbEntity
  8
0
  6
Continuous
 62
     7
100
AcDbLine
 10
8060.5598144531
 20
8963.896728515601
 30
0.0
 11
8058.931640625001
 21
8944.484619140601
 31
0.0
  0
LINE
  5
745
330
1FF
100
AcDbEntity
  8
0
  6
Continuous
 62
     7
100
AcDbLine
 10
4562.3726806641
 20
1818.1882324219
 30
0.0
 11
4593.0726318359
 21
1836.8035888672
 31
0.0
  0
LINE
  5
746
330
1FF
100
AcDbEntity
  8
0
  6
Continuous
 62
     7
100
AcDbLine
 10
5613.3867950439
 20
2455.4787597656
 30
0.0
 11
5855.8325500488
 21
2602.4877319336
 31
0.0
  0
LINE
  5
747
330
1FF
100
AcDbEntity
  8
0
  6
Continuous
 62
     7
100
AcDbLine
 10
3078.4106445312
 20
865.7585449219
 30
0.0
 11
4585.7009277344
 21
1779.7156982422
 31
0.0
  0
LINE
  5
748
330
1FF
100
AcDbEntity
  8
0
  6
Continuous
 62
     7
100
AcDbLine
 10
829.2641601561999
 20
6199.803955078101
 30
0.0
 11
815.9267578125
 21
6197.7746582031
 31
0.0
  0
LINE
  5
749
330
1FF
100
AcDbEntity
  8
0
  6
Continuous
 62
     7
100
AcDbLine
 10
802.5893554688
 20
6221.7331542969
 30
0.0
 11
815.9267578125
 21
6223.7619628906
 31
0.0
  0
LINE
  5
74A
330
1FF
100
AcDbEntity
  8
0
  6
Continuous
 62
     7
100
AcDbLine
 10
815.9267578125
 20
6197.7746582031
 30
0.0
 11
829.2641601561999
 21
6199.798828125
 31
0.0
  0
LINE
  5
74B
330
1FF
100
AcDbEntity
  8
0
  6
Continuous
 62
     7
100
AcDbLine
 10
330.2163085938
 20
7016.8312988281
 30
0.0
 11
489.5263671875
 21
7016.8312988281
 31
0.0
  0
LINE
  5
74C
330
1FF
100
AcDbEntity
  8
0
  6
Continuous
 62
     7
100
AcDbLine
 10
10508.849609375
 20
7154.3449707031
 30
0.0
 11
10668.1596679688
 21
7154.3449707031
 31
0.0
  0
LINE
  5
74D
330
1FF
100
AcDbEntity
  8
0
  6
Continuous
 62
     7
100
AcDbLine
 10
330.2163085938
 20
7246.0817871094
 30
0.0
 11
489.5263671875
 21
7246.0817871094
 31
0.0
  0
LINE
  5
74E
330
1FF
100
AcDbEntity
  8
0
  6
Continuous
 62
     7
100
AcDbLine
 10
10508.849609375
 20
7246.0817871094
 30
0.0
 11
10668.1596679688
 21
7246.0817871094
 31
0.0
  0
LINE
  5
74F
330
1FF
100
AcDbEntity
  8
0
  6
Continuous
 62
     7
100
AcDbLine
 10
10220.1015625
 20
4648.4873046875
 30
0.0
 11
10609.4599609375
 21
4415.9066772461
 31
0.0
  0
LINE
  5
750
330
1FF
100
AcDbEntity
  8
0
  6
Continuous
 62
     7
100
AcDbLine
 10
10220.1015625
 20
4651.0034179688
 30
0.0
 11
10609.4599609375
 21
4418.4232177734
 31
0.0
  0
LINE
  5
751
330
1FF
100
AcDbEntity
  8
0
  6
Continuous
 62
     7
100
AcDbLine
 10
5540.4167556763
 20
7798.862060546899
 30
0.0
 11
5540.323425293
 21
7798.9553222656
 31
0.0
  0
LINE
  5
752
330
1FF
100
AcDbEntity
  8
0
  6
Continuous
 62
     7
100
AcDbLine
 10
5540.4167556763
 20
7799.0485839844
 30
0.0
 11
5540.510086059599
 21
7798.9553222656
 31
0.0
  0
LINE
  5
753
330
1FF
100
AcDbEntity
  8
0
  6
Continuous
 62
     7
100
AcDbLine
 10
5547.5767593384
 20
7796.621826171899
 30
0.0
 11
5548.510093689
 21
7795.6887207031
 31
0.0
  0
LINE
  5
754
330
1FF
100
AcDbEntity
  8
0
  6
Continuous
 62
     7
100
AcDbLine
 10
5510.6100921631
 20
7791.722412109399
 30
0.0
 11
5511.076751709
 21
7791.255615234399
 31
0.0
  0
LINE
  5
755
330
1FF
100
AcDbEntity
  8
0
  6
Continuous
 62
     7
100
AcDbLine
 10
5511.076751709
 20
7792.8889160156
 30
0.0
 11
5510.6100921631
 21
7793.3557128906
 31
0.0
  0
LINE
  5
756
330
1FF
100
AcDbEntity
  8
0
  6
Continuous
 62
     7
100
AcDbLine
 10
5512.943420410199
 20
7792.655517578101
 30
0.0
 11
5512.7100830078
 21
7792.8889160156
 31
0.0
  0
LINE
  5
757
330
1FF
100
AcDbEntity
  8
0
  6
Continuous
 62
     7
100
AcDbLine
 10
5514.8900909424
 20
7791.255615234399
 30
0.0
 11
5514.4234161377
 21
7791.722412109399
 31
0.0
  0
LINE
  5
758
330
1FF
100
AcDbEntity
  8
0
  6
Continuous
 62
     7
100
AcDbLine
 10
5512.4767608643
 20
7794.522216796899
 30
0.0
 11
5512.943420410199
 21
7794.0554199219
 31
0.0
  0
LINE
  5
759
330
1FF
100
AcDbEntity
  8
0
  6
Continuous
 62
     7
100
AcDbLine
 10
5515.823425293
 20
7793.3557128906
 30
0.0
 11
5516.2900848389
 21
7792.8889160156
 31
0.0
  0
LINE
  5
75A
330
1FF
100
AcDbEntity
  8
0
  6
Continuous
 62
     7
100
AcDbLine
 10
5518.2367553711
 20
7791.255615234399
 30
0.0
 11
5517.7700805664
 21
7791.722412109399
 31
0.0
  0
LINE
  5
75B
330
1FF
100
AcDbEntity
  8
0
  6
Continuous
 62
     7
100
AcDbLine
 10
5512.943420410199
 20
7797.088623046899
 30
0.0
 11
5512.4767608643
 21
7797.555419921899
 31
0.0
  0
LINE
  5
75C
330
1FF
100
AcDbEntity
  8
0
  6
Continuous
 62
     7
100
AcDbLine
 10
5514.8900909424
 20
7795.6887207031
 30
0.0
 11
5514.4234161377
 21
7796.1555175781
 31
0.0
  0
LINE
  5
75D
330
1FF
100
AcDbEntity
  8
0
  6
Continuous
 62
     7
100
AcDbLine
 10
5519.636749267601
 20
7791.722412109399
 30
0.0
 11
5520.1034240723
 21
7791.255615234399
 31
0.0
  0
LINE
  5
75E
330
1FF
100
AcDbEntity
  8
0
  6
Continuous
 62
     7
100
AcDbLine
 10
5512.943420410199
 20
7798.4885253906
 30
0.0
 11
5512.4767608643
 21
7798.9553222656
 31
0.0
  0
LINE
  5
75F
330
1FF
100
AcDbEntity
  8
0
  6
Continuous
 62
     7
100
AcDbLine
 10
5519.170089721701
 20
7793.3557128906
 30
0.0
 11
5519.636749267601
 21
7792.8889160156
 31
0.0
  0
LINE
  5
760
330
1FF
100
AcDbEntity
  8
0
  6
Continuous
 62
     7
100
AcDbLine
 10
5515.823425293
 20
7797.7888183594
 30
0.0
 11
5516.2900848389
 21
7797.322021484399
 31
0.0
  0
LINE
  5
761
330
1FF
100
AcDbEntity
  8
0
  6
Continuous
 62
     7
100
AcDbLine
 10
5518.936752319301
 20
7796.1555175781
 30
0.0
 11
5519.403427124
 21
7795.6887207031
 31
0.0
  0
LINE
  5
762
330
1FF
100
AcDbEntity
  8
0
  6
Continuous
 62
     7
100
AcDbLine
 10
5525.6300811768
 20
7791.255615234399
 30
0.0
 11
5525.1634216309
 21
7791.722412109399
 31
0.0
  0
LINE
  5
763
330
1FF
100
AcDbEntity
  8
0
  6
Continuous
 62
     7
100
AcDbLine
 10
5522.516754150401
 20
7796.1555175781
 30
0.0
 11
5522.9834289551
 21
7795.6887207031
 31
0.0
  0
LINE
  5
764
330
1FF
100
AcDbEntity
  8
0
  6
Continuous
 62
     7
100
AcDbLine
 10
5526.5634155273
 20
7793.3557128906
 30
0.0
 11
5527.030090331999
 21
7792.8889160156
 31
0.0
  0
LINE
  5
765
330
1FF
100
AcDbEntity
  8
0
  6
Continuous
 62
     7
100
AcDbLine
 10
5525.6300811768
 20
7795.6887207031
 30
0.0
 11
5525.1634216309
 21
7796.1555175781
 31
0.0
  0
LINE
  5
766
330
1FF
100
AcDbEntity
  8
0
  6
Continuous
 62
     7
100
AcDbLine
 10
5526.5634155273
 20
7797.7888183594
 30
0.0
 11
5527.030090331999
 21
7797.322021484399
 31
0.0
  0
LINE
  5
767
330
1FF
100
AcDbEntity
  8
0
  6
Continuous
 62
     7
100
AcDbLine
 10
5529.2100830078
 20
7797.7888183594
 30
0.0
 11
5529.6767578125
 21
7797.322021484399
 31
0.0
  0
LINE
  5
768
330
1FF
100
AcDbEntity
  8
0
  6
Continuous
 62
     7
100
AcDbLine
 10
5530.610092163101
 20
7797.7888183594
 30
0.0
 11
5531.076751709
 21
7797.322021484399
 31
0.0
  0
LINE
  5
769
330
1FF
100
AcDbEntity
  8
0
  6
Continuous
 62
     7
100
AcDbLine
 10
5539.450088501
 20
7791.255615234399
 30
0.0
 11
5538.983421325699
 21
7791.722412109399
 31
0.0
  0
LINE
  5
76A
330
1FF
100
AcDbEntity
  8
0
  6
Continuous
 62
     7
100
AcDbLine
 10
5540.383422851601
 20
7793.3557128906
 30
0.0
 11
5540.850090026899
 21
7792.8889160156
 31
0.0
  0
LINE
  5
76B
330
1FF
100
AcDbEntity
  8
0
  6
Continuous
 62
     7
100
AcDbLine
 10
5542.5634231567
 20
7791.722412109399
 30
0.0
 11
5543.030090331999
 21
7791.255615234399
 31
0.0
  0
LINE
  5
76C
330
1FF
100
AcDbEntity
  8
0
  6
Continuous
 62
     7
100
AcDbLine
 10
5544.430091857901
 20
7794.0554199219
 30
0.0
 11
5543.9634246826
 21
7794.522216796899
 31
0.0
  0
LINE
  5
76D
330
1FF
100
AcDbEntity
  8
0
  6
Continuous
 62
     7
100
AcDbLine
 10
5543.530090332
 20
7795.6887207031
 30
0.0
 11
5543.0634231567
 21
7796.1555175781
 31
0.0
  0
LINE
  5
76E
330
1FF
100
AcDbEntity
  8
0
  6
Continuous
 62
     7
100
AcDbLine
 10
5544.4634246826
 20
7797.7888183594
 30
0.0
 11
5544.9300918579
 21
7797.322021484399
 31
0.0
  0
LINE
  5
76F
330
1FF
100
AcDbEntity
  8
0
  6
Continuous
 62
     7
100
AcDbLine
 10
5546.176757812499
 20
7796.1555175781
 30
0.0
 11
5546.6434249878
 21
7795.6887207031
 31
0.0
  0
LINE
  5
770
330
1FF
100
AcDbEntity
  8
0
  6
Continuous
 62
     7
100
AcDbLine
 10
8753.0546875
 20
8803.860595703101
 30
0.0
 11
8751.160400390601
 21
8790.3615722656
 31
0.0
  0
LINE
  5
771
330
1FF
100
AcDbEntity
  8
0
  6
Continuous
 62
     7
100
AcDbLine
 10
8753.0546875
 20
8803.860595703101
 30
0.0
 11
8751.1708984375
 21
8790.447021484398
 31
0.0
  0
LINE
  5
772
330
1FF
100
AcDbEntity
  8
0
  6
Continuous
 62
     7
100
AcDbLine
 10
831.0629882813
 20
6190.3276367187
 30
0.0
 11
838.4228515625
 21
6192.2746582031
 31
0.0
  0
LINE
  5
773
330
1FF
100
AcDbEntity
  8
0
  6
Continuous
 62
     7
100
AcDbLine
 10
800.7900390625
 20
6231.208984375
 30
0.0
 11
793.4306640625
 21
6229.2619628906
 31
0.0
  0
LINE
  5
774
330
1FF
100
AcDbEntity
  8
0
  6
Continuous
 62
     7
100
AcDbLine
 10
831.0590820313001
 20
6190.3344726562
 30
0.0
 11
838.419921875
 21
6192.2685546875
 31
0.0
  0
LINE
  5
775
330
1FF
100
AcDbEntity
  8
0
  6
Continuous
 62
     7
100
AcDbLine
 10
10199.4418945313
 20
6230.7993164062
 30
0.0
 11
10207.6293945313
 21
6228.3005371094
 31
0.0
  0
LINE
  5
776
330
1FF
100
AcDbEntity
  8
0
  6
Continuous
 62
     7
100
AcDbLine
 10
10199.4931640625
 20
6230.7924804687
 30
0.0
 11
10207.6997070312
 21
6228.2678222656
 31
0.0
  0
LINE
  5
777
330
1FF
100
AcDbEntity
  8
0
  6
Continuous
 62
     7
100
AcDbLine
 10
8057.9475097656
 20
8988.214111328101
 30
0.0
 11
8060.5598144531
 21
8963.896728515601
 31
0.0
  0
LINE
  5
778
330
1FF
100
AcDbEntity
  8
0
  6
Continuous
 62
     7
100
AcDbLine
 10
8058.8637695312
 20
8983.725830078101
 30
0.0
 11
8060.5598144531
 21
8963.896728515601
 31
0.0
  0
LINE
  5
779
330
1FF
100
AcDbEntity
  8
0
  6
Continuous
 62
     7
100
AcDbLine
 10
10341.4174804688
 20
3807.559753418
 30
0.0
 11
10609.4599609375
 21
3936.6025390625
 31
0.0
  0
LINE
  5
77A
330
1FF
100
AcDbEntity
  8
0
  6
Continuous
 62
     7
100
AcDbLine
 10
10341.4174804688
 20
3806.4546203613
 30
0.0
 11
10609.4599609375
 21
3935.4974365234
 31
0.0
  0
LINE
  5
77B
330
1FF
100
AcDbEntity
  8
0
  6
Continuous
 62
     7
100
AcDbLine
 10
10341.4174804688
 20
3788.4568786621
 30
0.0
 11
10609.4599609375
 21
3917.4806213379
 31
0.0
  0
LINE
  5
77C
330
1FF
100
AcDbEntity
  8
0
  6
Continuous
 62
     7
100
AcDbLine
 10
8730.416015625001
 20
8764.846435546898
 30
0.0
 11
8717.251464843801
 21
8761.884521484399
 31
0.0
  0
LINE
  5
77D
330
1FF
100
AcDbEntity
  8
0
  6
Continuous
 62
     7
100
AcDbLine
 10
8730.151367187501
 20
8764.705322265601
 30
0.0
 11
8716.874511718801
 21
8761.887939453101
 31
0.0
  0
LINE
  5
77E
330
1FF
100
AcDbEntity
  8
0
  6
Continuous
 62
     7
100
AcDbLine
 10
5546.6100921631
 20
7791.255615234399
 30
0.0
 11
5546.1434249878
 21
7791.255615234399
 31
0.0
  0
LINE
  5
77F
330
1FF
100
AcDbEntity
  8
0
  6
Continuous
 62
     7
100
AcDbLine
 10
5551.59009552
 20
7791.255615234399
 30
0.0
 11
5549.7234268188
 21
7791.255615234399
 31
0.0
  0
LINE
  5
780
330
1FF
100
AcDbEntity
  8
0
  6
Continuous
 62
     7
100
AcDbLine
 10
5540.383422851601
 20
7791.255615234399
 30
0.0
 11
5539.450088501
 21
7791.255615234399
 31
0.0
  0
LINE
  5
781
330
1FF
100
AcDbEntity
  8
0
  6
Continuous
 62
     7
100
AcDbLine
 10
5527.030090331999
 20
7791.255615234399
 30
0.0
 11
5525.6300811768
 21
7791.255615234399
 31
0.0
  0
LINE
  5
782
330
1FF
100
AcDbEntity
  8
0
  6
Continuous
 62
     7
100
AcDbLine
 10
5529.2100830078
 20
7791.255615234399
 30
0.0
 11
5528.7434234619
 21
7791.255615234399
 31
0.0
  0
LINE
  5
783
330
1FF
100
AcDbEntity
  8
0
  6
Continuous
 62
     7
100
AcDbLine
 10
5515.823425293
 20
7791.255615234399
 30
0.0
 11
5514.8900909424
 21
7791.255615234399
 31
0.0
  0
LINE
  5
784
330
1FF
100
AcDbEntity
  8
0
  6
Continuous
 62
     7
100
AcDbLine
 10
5519.170089721701
 20
7791.255615234399
 30
0.0
 11
5518.2367553711
 21
7791.255615234399
 31
0.0
  0
LINE
  5
785
330
1FF
100
AcDbEntity
  8
0
  6
Continuous
 62
     7
100
AcDbLine
 10
5511.076751709
 20
7791.255615234399
 30
0.0
 11
5512.4767608643
 21
7791.255615234399
 31
0.0
  0
LINE
  5
786
330
1FF
100
AcDbEntity
  8
0
  6
Continuous
 62
     7
100
AcDbLine
 10
5522.516754150401
 20
7791.255615234399
 30
0.0
 11
5522.9834289551
 21
7791.255615234399
 31
0.0
  0
LINE
  5
787
330
1FF
100
AcDbEntity
  8
0
  6
Continuous
 62
     7
100
AcDbLine
 10
5543.030090331999
 20
7791.255615234399
 30
0.0
 11
5543.9634246826
 21
7791.255615234399
 31
0.0
  0
LINE
  5
788
330
1FF
100
AcDbEntity
  8
0
  6
Continuous
 62
     7
100
AcDbLine
 10
5528.7434234619
 20
7791.722412109399
 30
0.0
 11
5529.2100830078
 21
7791.722412109399
 31
0.0
  0
LINE
  5
789
330
1FF
100
AcDbEntity
  8
0
  6
Continuous
 62
     7
100
AcDbLine
 10
5546.1434249878
 20
7791.722412109399
 30
0.0
 11
5546.6100921631
 21
7791.722412109399
 31
0.0
  0
LINE
  5
78A
330
1FF
100
AcDbEntity
  8
0
  6
Continuous
 62
     7
100
AcDbLine
 10
5526.796752929699
 20
7792.188720703101
 30
0.0
 11
5525.1634216309
 21
7792.188720703101
 31
0.0
  0
LINE
  5
78B
330
1FF
100
AcDbEntity
  8
0
  6
Continuous
 62
     7
100
AcDbLine
 10
5518.2367553711
 20
7792.4221191406
 30
0.0
 11
5519.636749267601
 21
7792.4221191406
 31
0.0
  0
LINE
  5
78C
330
1FF
100
AcDbEntity
  8
0
  6
Continuous
 62
     7
100
AcDbLine
 10
5546.6100921631
 20
7792.655517578101
 30
0.0
 11
5546.1434249878
 21
7792.655517578101
 31
0.0
  0
LINE
  5
78D
330
1FF
100
AcDbEntity
  8
0
  6
Continuous
 62
     7
100
AcDbLine
 10
5529.2100830078
 20
7792.655517578101
 30
0.0
 11
5528.7434234619
 21
7792.655517578101
 31
0.0
  0
LINE
  5
78E
330
1FF
100
AcDbEntity
  8
0
  6
Continuous
 62
     7
100
AcDbLine
 10
5512.7100830078
 20
7792.8889160156
 30
0.0
 11
5511.076751709
 21
7792.8889160156
 31
0.0
  0
LINE
  5
78F
330
1FF
100
AcDbEntity
  8
0
  6
Continuous
 62
     7
100
AcDbLine
 10
5528.7434234619
 20
7793.1223144531
 30
0.0
 11
5529.2100830078
 21
7793.1223144531
 31
0.0
  0
LINE
  5
790
330
1FF
100
AcDbEntity
  8
0
  6
Continuous
 62
     7
100
AcDbLine
 10
5546.1434249878
 20
7793.1223144531
 30
0.0
 11
5546.6100921631
 21
7793.1223144531
 31
0.0
  0
LINE
  5
791
330
1FF
100
AcDbEntity
  8
0
  6
Continuous
 62
     7
100
AcDbLine
 10
5514.8900909424
 20
7793.3557128906
 30
0.0
 11
5515.823425293
 21
7793.3557128906
 31
0.0
  0
LINE
  5
792
330
1FF
100
AcDbEntity
  8
0
  6
Continuous
 62
     7
100
AcDbLine
 10
5518.2367553711
 20
7793.3557128906
 30
0.0
 11
5519.170089721701
 21
7793.3557128906
 31
0.0
  0
LINE
  5
793
330
1FF
100
AcDbEntity
  8
0
  6
Continuous
 62
     7
100
AcDbLine
 10
5525.6300811768
 20
7793.3557128906
 30
0.0
 11
5526.5634155273
 21
7793.3557128906
 31
0.0
  0
LINE
  5
794
330
1FF
100
AcDbEntity
  8
0
  6
Continuous
 62
     7
100
AcDbLine
 10
5539.450088501
 20
7793.3557128906
 30
0.0
 11
5540.383422851601
 21
7793.3557128906
 31
0.0
  0
LINE
  5
795
330
1FF
100
AcDbEntity
  8
0
  6
Continuous
 62
     7
100
AcDbLine
 10
5540.850090026899
 20
7794.522216796899
 30
0.0
 11
5538.983421325699
 21
7794.522216796899
 31
0.0
  0
LINE
  5
796
330
1FF
100
AcDbEntity
  8
0
  6
Continuous
 62
     7
100
AcDbLine
 10
5543.9634246826
 20
7794.522216796899
 30
0.0
 11
5543.030090331999
 21
7794.522216796899
 31
0.0
  0
LINE
  5
797
330
1FF
100
AcDbEntity
  8
0
  6
Continuous
 62
     7
100
AcDbLine
 10
5511.076751709
 20
7794.522216796899
 30
0.0
 11
5512.4767608643
 21
7794.522216796899
 31
0.0
  0
LINE
  5
798
330
1FF
100
AcDbEntity
  8
0
  6
Continuous
 62
     7
100
AcDbLine
 10
5544.9300918579
 20
7795.6887207031
 30
0.0
 11
5543.530090332
 21
7795.6887207031
 31
0.0
  0
LINE
  5
799
330
1FF
100
AcDbEntity
  8
0
  6
Continuous
 62
     7
100
AcDbLine
 10
5526.5634155273
 20
7795.6887207031
 30
0.0
 11
5525.6300811768
 21
7795.6887207031
 31
0.0
  0
LINE
  5
79A
330
1FF
100
AcDbEntity
  8
0
  6
Continuous
 62
     7
100
AcDbLine
 10
5515.823425293
 20
7795.6887207031
 30
0.0
 11
5514.8900909424
 21
7795.6887207031
 31
0.0
  0
LINE
  5
79B
330
1FF
100
AcDbEntity
  8
0
  6
Continuous
 62
     7
100
AcDbLine
 10
5510.6100921631
 20
7795.6887207031
 30
0.0
 11
5512.4767608643
 21
7795.6887207031
 31
0.0
  0
LINE
  5
79C
330
1FF
100
AcDbEntity
  8
0
  6
Continuous
 62
     7
100
AcDbLine
 10
5519.403427124
 20
7795.6887207031
 30
0.0
 11
5519.8700866699
 21
7795.6887207031
 31
0.0
  0
LINE
  5
79D
330
1FF
100
AcDbEntity
  8
0
  6
Continuous
 62
     7
100
AcDbLine
 10
5522.9834289551
 20
7795.6887207031
 30
0.0
 11
5523.450088501
 21
7795.6887207031
 31
0.0
  0
LINE
  5
79E
330
1FF
100
AcDbEntity
  8
0
  6
Continuous
 62
     7
100
AcDbLine
 10
5544.696762085
 20
7796.621826171899
 30
0.0
 11
5543.0634231567
 21
7796.621826171899
 31
0.0
  0
LINE
  5
79F
330
1FF
100
AcDbEntity
  8
0
  6
Continuous
 62
     7
100
AcDbLine
 10
5511.076751709
 20
7797.555419921899
 30
0.0
 11
5512.4767608643
 21
7797.555419921899
 31
0.0
  0
LINE
  5
7A0
330
1FF
100
AcDbEntity
  8
0
  6
Continuous
 62
     7
100
AcDbLine
 10
5514.8900909424
 20
7797.7888183594
 30
0.0
 11
5515.823425293
 21
7797.7888183594
 31
0.0
  0
LINE
  5
7A1
330
1FF
100
AcDbEntity
  8
0
  6
Continuous
 62
     7
100
AcDbLine
 10
5518.0034179688
 20
7797.7888183594
 30
0.0
 11
5519.8700866699
 21
7797.7888183594
 31
0.0
  0
LINE
  5
7A2
330
1FF
100
AcDbEntity
  8
0
  6
Continuous
 62
     7
100
AcDbLine
 10
5521.583419799799
 20
7797.7888183594
 30
0.0
 11
5523.450088501
 21
7797.7888183594
 31
0.0
  0
LINE
  5
7A3
330
1FF
100
AcDbEntity
  8
0
  6
Continuous
 62
     7
100
AcDbLine
 10
5525.6300811768
 20
7797.7888183594
 30
0.0
 11
5526.5634155273
 21
7797.7888183594
 31
0.0
  0
LINE
  5
7A4
330
1FF
100
AcDbEntity
  8
0
  6
Continuous
 62
     7
100
AcDbLine
 10
5528.7434234619
 20
7797.7888183594
 30
0.0
 11
5529.2100830078
 21
7797.7888183594
 31
0.0
  0
LINE
  5
7A5
330
1FF
100
AcDbEntity
  8
0
  6
Continuous
 62
     7
100
AcDbLine
 10
5530.143417358399
 20
7797.7888183594
 30
0.0
 11
5530.610092163101
 21
7797.7888183594
 31
0.0
  0
LINE
  5
7A6
330
1FF
100
AcDbEntity
  8
0
  6
Continuous
 62
     7
100
AcDbLine
 10
5543.530090332
 20
7797.7888183594
 30
0.0
 11
5544.4634246826
 21
7797.7888183594
 31
0.0
  0
LINE
  5
7A7
330
1FF
100
AcDbEntity
  8
0
  6
Continuous
 62
     7
100
AcDbLine
 10
5512.4767608643
 20
7798.9553222656
 30
0.0
 11
5510.6100921631
 21
7798.9553222656
 31
0.0
  0
LINE
  5
7A8
330
1FF
100
AcDbEntity
  8
0
  6
Continuous
 62
     7
100
AcDbLine
 10
5060.296875
 20
7806.188720703101
 30
0.0
 11
5601.5516967773
 21
7806.188720703101
 31
0.0
  0
LINE
  5
7A9
330
1FF
100
AcDbEntity
  8
DEFAULT_1
  6
CENTER
 62
     7
100
AcDbLine
 10
5390.9838256836
 20
7953.147705078101
 30
0.0
 11
5143.334106445301
 21
7953.147705078101
 31
0.0
  0
LINE
  5
7AA
330
1FF
100
AcDbEntity
  8
0
  6
Continuous
 62
     7
100
AcDbLine
 10
8681.448974609399
 20
6232.6813964844
 30
0.0
 11
8753.0546875
 21
6188.855224609399
 31
0.0
  0
LINE
  5
7C2
330
1FF
100
AcDbEntity
  8
0
  6
Continuous
 62
     7
100
AcDbLine
 10
5498.3236999512
 20
8342.865966796898
 30
0.0
 11
5596.1321563721
 21
8342.865966796898
 31
0.0
  0
LINE
  5
7C3
330
1FF
100
AcDbEntity
  8
0
  6
Continuous
 62
     7
100
AcDbLine
 10
4560.4912109375
 20
8359.2609863281
 30
0.0
 11
5953.0066223145
 21
8359.2609863281
 31
0.0
  0
LINE
  5
7C4
330
1FF
100
AcDbEntity
  8
0
  6
Continuous
 62
     7
100
AcDbLine
 10
4555.319335937499
 20
8372.779541015601
 30
0.0
 11
4560.4912109375
 21
8372.779541015601
 31
0.0
  0
LINE
  5
7C5
330
1FF
100
AcDbEntity
  8
0
  6
Continuous
 62
     7
100
AcDbLine
 10
4560.4912109375
 20
8399.416748046899
 30
0.0
 11
5953.0066223145
 21
8399.416748046899
 31
0.0
  0
LINE
  5
7C6
330
1FF
100
AcDbEntity
  8
0
  6
Continuous
 62
     7
100
AcDbLine
 10
4704.5176391602
 20
8420.151123046899
 30
0.0
 11
5498.3236999512
 21
8420.151123046899
 31
0.0
  0
LINE
  5
7C7
330
1FF
100
AcDbEntity
  8
0
  6
Continuous
 62
     7
100
AcDbLine
 10
5596.1088867188
 20
8420.151123046899
 30
0.0
 11
5799.063369751
 21
8420.151123046899
 31
0.0
  0
LINE
  5
7C8
330
1FF
100
AcDbEntity
  8
0
  6
Continuous
 62
     7
100
AcDbLine
 10
10207.6293945313
 20
6228.3005371094
 30
0.0
 11
10215.2607421875
 21
6224.4387207031
 31
0.0
  0
LINE
  5
7C9
330
1FF
100
AcDbEntity
  8
0
  6
Continuous
 62
     7
100
AcDbLine
 10
10207.6997070312
 20
6228.2678222656
 30
0.0
 11
10215.3461914062
 21
6224.3791503906
 31
0.0
  0
LINE
  5
7CA
330
1FF
100
AcDbEntity
  8
0
  6
Continuous
 62
     7
100
AcDbLine
 10
8056.5710449219
 20
8993.417236328102
 30
0.0
 11
8058.8637695312
 21
8983.725830078101
 31
0.0
  0
LINE
  5
7CB
330
1FF
100
AcDbEntity
  8
0
  6
Continuous
 62
     7
100
AcDbLine
 10
9184.777099609398
 20
3718.983993530301
 30
0.0
 11
9184.777099609398
 21
3777.9779052734
 31
0.0
  0
LINE
  5
7CC
330
1FF
100
AcDbEntity
  8
0
  6
Continuous
 62
     7
100
AcDbLine
 10
9184.777099609398
 20
4664.727172851599
 30
0.0
 11
9184.777099609398
 21
4718.567016601599
 31
0.0
  0
LINE
  5
7CD
330
1FF
100
AcDbEntity
  8
0
  6
Continuous
 62
     7
100
AcDbLine
 10
8038.237548828099
 20
9014.233642578101
 30
0.0
 11
8039.615478515599
 21
9014.330810546899
 31
0.0
  0
LINE
  5
7CE
330
1FF
100
AcDbEntity
  8
0
  6
Continuous
 62
     7
100
AcDbLine
 10
4327.6586914063
 20
8617.2658691406
 30
0.0
 11
4501.8250732422
 21
8624.408935546899
 31
0.0
  0
LINE
  5
7CF
330
1FF
100
AcDbEntity
  8
0
  6
Continuous
 62
     7
100
AcDbLine
 10
2698.7214355469
 20
8617.2658691406
 30
0.0
 11
2872.8876953125
 21
8624.408935546899
 31
0.0
  0
LINE
  5
7D0
330
1FF
100
AcDbEntity
  8
0
  6
Continuous
 62
     7
100
AcDbLine
 10
2698.7214355469
 20
8617.2658691406
 30
0.0
 11
4327.6586914063
 21
8617.2658691406
 31
0.0
  0
LINE
  5
7D1
330
1FF
100
AcDbEntity
  8
0
  6
Continuous
 62
     7
100
AcDbLine
 10
2872.8876953125
 20
8624.408935546899
 30
0.0
 11
4501.8250732422
 21
8624.408935546899
 31
0.0
  0
LINE
  5
7D2
330
1FF
100
AcDbEntity
  8
0
  6
Continuous
 62
     7
100
AcDbLine
 10
2739.2622070312
 20
8642.425537109399
 30
0.0
 11
2984.7590332031
 21
8642.425537109399
 31
0.0
  0
LINE
  5
7D3
330
1FF
100
AcDbEntity
  8
0
  6
Continuous
 62
     7
100
AcDbLine
 10
4506.9548339844
 20
8642.425537109399
 30
0.0
 11
5791.312286376999
 21
8642.425537109399
 31
0.0
  0
LINE
  5
7D4
330
1FF
100
AcDbEntity
  8
0
  6
Continuous
 62
     7
100
AcDbLine
 10
2739.642578125
 20
8643.364501953101
 30
0.0
 11
2985.064453125
 21
8643.365478515601
 31
0.0
  0
LINE
  5
7D5
330
1FF
100
AcDbEntity
  8
0
  6
Continuous
 62
     7
100
AcDbLine
 10
2776.2136230469
 20
8725.129150390602
 30
0.0
 11
3015.1850585938
 21
8725.129150390602
 31
0.0
  0
LINE
  5
7D6
330
1FF
100
AcDbEntity
  8
0
  6
Continuous
 62
     7
100
AcDbLine
 10
5932.914245605501
 20
8734.904052734398
 30
0.0
 11
6093.072021484399
 21
8734.904052734398
 31
0.0
  0
LINE
  5
7D7
330
1FF
100
AcDbEntity
  8
0
  6
Continuous
 62
     7
100
AcDbLine
 10
6092.927062988299
 20
8761.884521484399
 30
0.0
 11
8717.252197265601
 21
8761.884521484399
 31
0.0
  0
LINE
  5
7D8
330
1FF
100
AcDbEntity
  8
0
  6
Continuous
 62
     7
100
AcDbLine
 10
5932.774597168001
 20
8803.860595703101
 30
0.0
 11
8753.0546875
 21
8803.860595703101
 31
0.0
  0
LINE
  5
7D9
330
1FF
100
AcDbEntity
  8
0
  6
Continuous
 62
     7
100
AcDbLine
 10
6093.0109863281
 20
8828.7507324219
 30
0.0
 11
6093.408081054699
 21
8828.7507324219
 31
0.0
  0
LINE
  5
7DA
330
1FF
100
AcDbEntity
  8
0
  6
Continuous
 62
     7
100
AcDbLine
 10
2398.1447753906
 20
8643.392333984399
 30
0.0
 11
2739.2622070312
 21
8642.425537109399
 31
0.0
  0
LINE
  5
7DB
330
1FF
100
AcDbEntity
  8
0
  6
Continuous
 62
     7
100
AcDbLine
 10
8052.959960937499
 20
9002.6916503906
 30
0.0
 11
8056.5710449219
 21
8993.417236328102
 31
0.0
  0
LINE
  5
7DC
330
1FF
100
AcDbEntity
  8
0
  6
Continuous
 62
     7
100
AcDbLine
 10
8751.1708984375
 20
8817.274658203102
 30
0.0
 11
8753.0546875
 21
8803.860595703101
 31
0.0
  0
LINE
  5
7DD
330
1FF
100
AcDbEntity
  8
0
  6
Continuous
 62
     7
100
AcDbLine
 10
8751.2084960938
 20
8817.1984863281
 30
0.0
 11
8753.0546875
 21
8803.860595703101
 31
0.0
  0
LINE
  5
7DE
330
1FF
100
AcDbEntity
  8
0
  6
Continuous
 62
     7
100
AcDbLine
 10
10002.9970703125
 20
930.3239746094
 30
0.0
 11
9995.854003906302
 21
1217.5576171875
 31
0.0
  0
LINE
  5
7DF
330
1FF
100
AcDbEntity
  8
0
  6
Continuous
 62
     7
100
AcDbLine
 10
9695.066162109398
 20
5702.2219238281
 30
0.0
 11
9695.066162109398
 21
6046.6828613281
 31
0.0
  0
LINE
  5
7E0
330
1FF
100
AcDbEntity
  8
0
  6
Continuous
 62
     7
100
AcDbLine
 10
9721.454589843801
 20
2713.6578979492
 30
0.0
 11
9721.454589843801
 21
2811.4431152344
 31
0.0
  0
LINE
  5
7E1
330
1FF
100
AcDbEntity
  8
0
  6
Continuous
 62
     7
100
AcDbLine
 10
9727.244140625
 20
4897.026245117199
 30
0.0
 11
9727.244140625
 21
5005.930419921901
 31
0.0
  0
LINE
  5
7E2
330
1FF
100
AcDbEntity
  8
0
  6
Continuous
 62
     7
100
AcDbLine
 10
9737.849609375
 20
1817.5751953125
 30
0.0
 11
9737.849609375
 21
3719.0763092041
 31
0.0
  0
LINE
  5
7E3
330
1FF
100
AcDbEntity
  8
0
  6
Continuous
 62
     7
100
AcDbLine
 10
9737.849609375
 20
3777.9779052734
 30
0.0
 11
9737.849609375
 21
3788.491973877
 31
0.0
  0
LINE
  5
7E4
330
1FF
100
AcDbEntity
  8
0
  6
Continuous
 62
     7
100
AcDbLine
 10
9737.849609375
 20
4655.8251953125
 30
0.0
 11
9737.849609375
 21
6219.5246582031
 31
0.0
  0
LINE
  5
7E5
330
1FF
100
AcDbEntity
  8
0
  6
Continuous
 62
     7
100
AcDbLine
 10
9749.094238281301
 20
3718.983993530301
 30
0.0
 11
9749.094238281301
 21
3777.9779052734
 31
0.0
  0
LINE
  5
7E6
330
1FF
100
AcDbEntity
  8
0
  6
Continuous
 62
     7
100
AcDbLine
 10
9751.367675781303
 20
2826.9631958008
 30
0.0
 11
9751.367675781303
 21
3786.1810302734
 31
0.0
  0
LINE
  5
7E7
330
1FF
100
AcDbEntity
  8
0
  6
Continuous
 62
     7
100
AcDbLine
 10
9751.367675781303
 20
3788.101348877
 30
0.0
 11
9751.367675781303
 21
3805.283508300801
 31
0.0
  0
LINE
  5
7E8
330
1FF
100
AcDbEntity
  8
0
  6
Continuous
 62
     7
100
AcDbLine
 10
9762.253417968802
 20
4648.4873046875
 30
0.0
 11
9762.253417968802
 21
4655.8251953125
 31
0.0
  0
LINE
  5
7E9
330
1FF
100
AcDbEntity
  8
0
  6
Continuous
 62
     7
100
AcDbLine
 10
9762.256347656302
 20
4970.9992675781
 30
0.0
 11
9762.257324218801
 21
5128.183471679699
 31
0.0
  0
LINE
  5
7EA
330
1FF
100
AcDbEntity
  8
0
  6
Continuous
 62
     7
100
AcDbLine
 10
9778.004882812501
 20
1817.5751953125
 30
0.0
 11
9778.004882812501
 21
2826.9631958008
 31
0.0
  0
LINE
  5
7EB
330
1FF
100
AcDbEntity
  8
0
  6
Continuous
 62
     7
100
AcDbLine
 10
9778.004882812501
 20
3786.2836456299
 30
0.0
 11
9778.004882812501
 21
3788.101348877
 31
0.0
  0
LINE
  5
7EC
330
1FF
100
AcDbEntity
  8
0
  6
Continuous
 62
     7
100
AcDbLine
 10
9778.004882812501
 20
4655.8251953125
 30
0.0
 11
9778.004882812501
 21
4970.9992675781
 31
0.0
  0
LINE
  5
7ED
330
1FF
100
AcDbEntity
  8
0
  6
Continuous
 62
     7
100
AcDbLine
 10
9778.004882812501
 20
5128.1545410156
 30
0.0
 11
9778.004882812501
 21
6219.5246582031
 31
0.0
  0
LINE
  5
7EE
330
1FF
100
AcDbEntity
  8
0
  6
Continuous
 62
     7
100
AcDbLine
 10
9846.620605468801
 20
5492.4771728516
 30
0.0
 11
9846.620605468801
 21
6251.2490234375
 31
0.0
  0
LINE
  5
7EF
330
1FF
100
AcDbEntity
  8
0
  6
Continuous
 62
     7
100
AcDbLine
 10
9865.719238281201
 20
5128.196899414099
 30
0.0
 11
9865.719238281201
 21
6812.9541015625
 31
0.0
  0
LINE
  5
7F0
330
1FF
100
AcDbEntity
  8
0
  6
Continuous
 62
     7
100
AcDbLine
 10
9995.854003906302
 20
2205.2766113281
 30
0.0
 11
10021.9575195312
 21
2218.8040771484
 31
0.0
  0
LINE
  5
7F1
330
1FF
100
AcDbEntity
  8
0
  6
Continuous
 62
     7
100
AcDbLine
 10
10103.7172851562
 20
2261.1745605469
 30
0.0
 11
10283.1909179688
 21
2354.1829833984
 31
0.0
  0
LINE
  5
7F2
330
1FF
100
AcDbEntity
  8
0
  6
Continuous
 62
     7
100
AcDbLine
 10
6092.927062988299
 20
8845.837158203101
 30
0.0
 11
8717.252197265601
 21
8845.837158203101
 31
0.0
  0
LINE
  5
7F3
330
1FF
100
AcDbEntity
  8
0
  6
Continuous
 62
     7
100
AcDbLine
 10
5932.914245605501
 20
8872.817626953102
 30
0.0
 11
6093.072021484399
 21
8872.817626953102
 31
0.0
  0
LINE
  5
7F4
330
1FF
100
AcDbEntity
  8
DEFAULT_1
  6
CENTER
 62
     7
100
AcDbLine
 10
5549.5814056396
 20
8879.871337890602
 30
0.0
 11
5181.0660095215
 21
8879.871337890602
 31
0.0
  0
LINE
  5
7F5
330
1FF
100
AcDbEntity
  8
DEFAULT_1
  6
CENTER
 62
     7
100
AcDbLine
 10
5397.895324707
 20
8890.470458984399
 30
0.0
 11
5321.184417724601
 21
8890.470458984399
 31
0.0
  0
LINE
  5
7F6
330
1FF
100
AcDbEntity
  8
0
  6
Continuous
 62
     7
100
AcDbLine
 10
2856.4458007813
 20
8904.602783203101
 30
0.0
 11
3081.237060546901
 21
8904.602783203101
 31
0.0
  0
LINE
  5
7F7
330
1FF
100
AcDbEntity
  8
0
  6
Continuous
 62
     7
100
AcDbLine
 10
2859.6645507813
 20
8911.745849609399
 30
0.0
 11
3083.8869628906
 21
8911.745849609399
 31
0.0
  0
LINE
  5
7F8
330
1FF
100
AcDbEntity
  8
0
  6
Continuous
 62
     7
100
AcDbLine
 10
4583.6618652344
 20
8911.745849609399
 30
0.0
 11
5227.2135620117
 21
8911.745849609399
 31
0.0
  0
LINE
  5
7F9
330
1FF
100
AcDbEntity
  8
0
  6
Continuous
 62
     7
100
AcDbLine
 10
5503.4140319824
 20
8911.745849609399
 30
0.0
 11
5855.8325500488
 21
8911.745849609399
 31
0.0
  0
LINE
  5
7FA
330
1FF
100
AcDbEntity
  8
0
  6
Continuous
 62
     7
100
AcDbLine
 10
5932.914245605501
 20
8913.461669921899
 30
0.0
 11
8039.510986328101
 21
8913.461669921899
 31
0.0
  0
LINE
  5
7FB
330
1FF
100
AcDbEntity
  8
0
  6
Continuous
 62
     7
100
AcDbLine
 10
3078.4106445312
 20
8918.888916015601
 30
0.0
 11
4585.7009277344
 21
8918.888916015601
 31
0.0
  0
LINE
  5
7FC
330
1FF
100
AcDbEntity
  8
0
  6
Continuous
 62
     7
100
AcDbLine
 10
5932.802062988299
 20
8963.896728515601
 30
0.0
 11
8060.5598144531
 21
8963.896728515601
 31
0.0
  0
LINE
  5
7FD
330
1FF
100
AcDbEntity
  8
0
  6
Continuous
 62
     7
100
AcDbLine
 10
5932.914245605501
 20
9014.331298828102
 30
0.0
 11
8039.510986328101
 21
9014.331298828102
 31
0.0
  0
LINE
  5
7FE
330
1FF
100
AcDbEntity
  8
0
  6
Continuous
 62
     7
100
AcDbLine
 10
5932.914245605501
 20
9047.300537109398
 30
0.0
 11
5955.337402343801
 21
9047.300537109398
 31
0.0
  0
LINE
  5
7FF
330
1FF
100
AcDbEntity
  8
0
  6
Continuous
 62
     7
100
AcDbLine
 10
2758.1000976562
 20
9138.911865234398
 30
0.0
 11
3001.9338378906
 21
9138.911865234398
 31
0.0
  0
LINE
  5
800
330
1FF
100
AcDbEntity
  8
0
  6
Continuous
 62
     7
100
AcDbLine
 10
2398.1225585938
 20
9181.066162109399
 30
0.0
 11
2987.3063964844
 21
9181.066162109399
 31
0.0
  0
LINE
  5
801
330
1FF
100
AcDbEntity
  8
0
  6
Continuous
 62
     7
100
AcDbLine
 10
4497.8525390625
 20
9181.066162109399
 30
0.0
 11
5791.312286376999
 21
9181.066162109399
 31
0.0
  0
LINE
  5
802
330
1FF
100
AcDbEntity
  8
0
  6
Continuous
 62
     7
100
AcDbLine
 10
2866.4729003906
 20
9206.226318359398
 30
0.0
 11
4495.4102783203
 21
9206.226318359398
 31
0.0
  0
LINE
  5
803
330
1FF
100
AcDbEntity
  8
0
  6
Continuous
 62
     7
100
AcDbLine
 10
10215.2607421875
 20
6224.4387207031
 30
0.0
 11
10219.703125
 21
6220.8642578125
 31
0.0
  0
LINE
  5
804
330
1FF
100
AcDbEntity
  8
0
  6
Continuous
 62
     7
100
AcDbLine
 10
10215.3461914062
 20
6224.3791503906
 30
0.0
 11
10219.7890625
 21
6220.77734375
 31
0.0
  0
LINE
  5
805
330
1FF
100
AcDbEntity
  8
0
  6
Continuous
 62
     7
100
AcDbLine
 10
8049.466552734399
 20
9008.330322265601
 30
0.0
 11
8052.959960937499
 21
9002.6916503906
 31
0.0
  0
LINE
  5
806
330
1FF
100
AcDbEntity
  8
0
  6
Continuous
 62
     7
100
AcDbLine
 10
8047.8095703125
 20
9010.225830078102
 30
0.0
 11
8057.9475097656
 21
8988.214111328101
 31
0.0
  0
LINE
  5
807
330
1FF
100
AcDbEntity
  8
0
  6
Continuous
 62
     7
100
AcDbLine
 10
10250.0073242188
 20
3232.5643310547
 30
0.0
 11
10249.7338867188
 21
3238.0029296875
 31
0.0
  0
LINE
  5
808
330
1FF
100
AcDbEntity
  8
0
  6
Continuous
 62
     7
100
AcDbLine
 10
10155.9252929688
 20
5128.262451171901
 30
0.0
 11
10151.3344726562
 21
5542.460815429699
 31
0.0
  0
LINE
  5
809
330
1FF
100
AcDbEntity
  8
0
  6
Continuous
 62
     7
100
AcDbLine
 10
10180.1708984375
 20
5128.1846923828
 30
0.0
 11
10172.6137695312
 21
5810.0571289062
 31
0.0
  0
LINE
  5
80A
330
1FF
100
AcDbEntity
  8
0
  6
Continuous
 62
     7
100
AcDbLine
 10
10204.9599609375
 20
5128.2628173828
 30
0.0
 11
10197.1372070313
 21
5834.0920410156
 31
0.0
  0
LINE
  5
80B
330
1FF
100
AcDbEntity
  8
0
  6
Continuous
 62
     7
100
AcDbLine
 10
10021.9643554688
 20
1231.0869140625
 30
0.0
 11
10021.9482421875
 21
1235.3508300781
 31
0.0
  0
LINE
  5
80C
330
1FF
100
AcDbEntity
  8
0
  6
Continuous
 62
     7
100
AcDbLine
 10
10021.9604492188
 20
1231.0869140625
 30
0.0
 11
10021.9526367188
 21
1235.3518066406
 31
0.0
  0
LINE
  5
80D
330
1FF
100
AcDbEntity
  8
0
  6
Continuous
 62
     7
100
AcDbLine
 10
9995.854003906302
 20
1217.5576171875
 30
0.0
 11
9995.854003906302
 21
2205.2766113281
 31
0.0
  0
LINE
  5
80E
330
1FF
100
AcDbEntity
  8
0
  6
Continuous
 62
     7
100
AcDbLine
 10
10021.0141601562
 20
46.3713378906
 30
0.0
 11
10021.0141601562
 21
921.8701171875
 31
0.0
  0
LINE
  5
80F
330
1FF
100
AcDbEntity
  8
0
  6
Continuous
 62
     7
100
AcDbLine
 10
10021.0141601562
 20
2218.2900390625
 30
0.0
 11
10021.0141601562
 21
2708.893737793
 31
0.0
  0
LINE
  5
810
330
1FF
100
AcDbEntity
  8
0
  6
Continuous
 62
     7
100
AcDbLine
 10
10021.9575195312
 20
1235.3527832031
 30
0.0
 11
10021.9575195312
 21
2218.8040771484
 31
0.0
  0
LINE
  5
811
330
1FF
100
AcDbEntity
  8
0
  6
Continuous
 62
     7
100
AcDbLine
 10
10021.9526367188
 20
1235.3518066406
 30
0.0
 11
10021.9575195312
 21
2218.8040771484
 31
0.0
  0
LINE
  5
812
330
1FF
100
AcDbEntity
  8
0
  6
Continuous
 62
     7
100
AcDbLine
 10
10021.9809570313
 20
135.4396972656
 30
0.0
 11
10021.9809570313
 21
2824.7315673828
 31
0.0
  0
LINE
  5
813
330
1FF
100
AcDbEntity
  8
0
  6
Continuous
 62
     7
100
AcDbLine
 10
10032.0444335938
 20
5128.196899414099
 30
0.0
 11
10032.0444335938
 21
6812.9541015625
 31
0.0
  0
LINE
  5
814
330
1FF
100
AcDbEntity
  8
0
  6
Continuous
 62
     7
100
AcDbLine
 10
10079.6655273438
 20
5492.4771728516
 30
0.0
 11
10079.6655273438
 21
6214.88671875
 31
0.0
  0
LINE
  5
815
330
1FF
100
AcDbEntity
  8
0
  6
Continuous
 62
     7
100
AcDbLine
 10
10079.6655273438
 20
6214.8903808594
 30
0.0
 11
10079.6655273438
 21
6236.8310546875
 31
0.0
  0
LINE
  5
816
330
1FF
100
AcDbEntity
  8
0
  6
Continuous
 62
     7
100
AcDbLine
 10
10079.6655273438
 20
6236.835693359399
 30
0.0
 11
10079.6655273438
 21
6251.2490234375
 31
0.0
  0
LINE
  5
828
330
1FF
100
AcDbEntity
  8
0
  6
Continuous
 62
     7
100
AcDbLine
 10
10103.7172851562
 20
1273.4555664062
 30
0.0
 11
10103.7172851562
 21
2261.1745605469
 31
0.0
  0
LINE
  5
837
330
1FF
100
AcDbEntity
  8
0
  6
Continuous
 62
     7
100
AcDbLine
 10
10120.267578125
 20
5542.6141357422
 30
0.0
 11
10120.267578125
 21
6291.662841796899
 31
0.0
  0
LINE
  5
839
330
1FF
100
AcDbEntity
  8
0
  6
Continuous
 62
     7
100
AcDbLine
 10
10136.3154296875
 20
3232.4311828613
 30
0.0
 11
10136.3154296875
 21
3232.6879272461
 31
0.0
  0
LINE
  5
83A
330
1FF
100
AcDbEntity
  8
0
  6
Continuous
 62
     7
100
AcDbLine
 10
10170.8784179688
 20
5917.2937011719
 30
0.0
 11
10170.8784179688
 21
6059.791748046899
 31
0.0
  0
LINE
  5
83B
330
1FF
100
AcDbEntity
  8
0
  6
Continuous
 62
     7
100
AcDbLine
 10
10171.0673828125
 20
5542.4538574219
 30
0.0
 11
10171.0673828125
 21
6291.7504882812
 31
0.0
  0
LINE
  5
83C
330
1FF
100
AcDbEntity
  8
0
  6
Continuous
 62
     7
100
AcDbLine
 10
10182.44921875
 20
6092.5324707031
 30
0.0
 11
10182.44921875
 21
6232.6813964844
 31
0.0
  0
LINE
  5
83D
330
1FF
100
AcDbEntity
  8
0
  6
Continuous
 62
     7
100
AcDbLine
 10
10193.1616210938
 20
3289.275131225601
 30
0.0
 11
10193.1616210938
 21
3289.544067382801
 31
0.0
  0
LINE
  5
83E
330
1FF
100
AcDbEntity
  8
0
  6
Continuous
 62
     7
100
AcDbLine
 10
10220.1015625
 20
4648.4873046875
 30
0.0
 11
10220.1015625
 21
4651.0034179688
 31
0.0
  0
LINE
  5
83F
330
1FF
100
AcDbEntity
  8
0
  6
Continuous
 62
     7
100
AcDbLine
 10
10224.4252929688
 20
6092.5349121094
 30
0.0
 11
10224.4252929688
 21
6210.7683105469
 31
0.0
  0
LINE
  5
840
330
1FF
100
AcDbEntity
  8
0
  6
Continuous
 62
     7
100
AcDbLine
 10
10232.5170898438
 20
5541.2053222656
 30
0.0
 11
10232.5170898438
 21
6290.2421875
 31
0.0
  0
LINE
  5
841
330
1FF
100
AcDbEntity
  8
0
  6
Continuous
 62
     7
100
AcDbLine
 10
10283.1909179688
 20
1366.4641113281
 30
0.0
 11
10283.1909179688
 21
2354.1829833984
 31
0.0
  0
LINE
  5
842
330
1FF
100
AcDbEntity
  8
0
  6
Continuous
 62
     7
100
AcDbLine
 10
10283.3168945312
 20
5541.1142578125
 30
0.0
 11
10283.3168945312
 21
6290.4108886719
 31
0.0
  0
LINE
  5
843
330
1FF
100
AcDbEntity
  8
0
  6
Continuous
 62
     7
100
AcDbLine
 10
10290.3344726563
 20
169.5031738281
 30
0.0
 11
10290.3344726563
 21
1272.4028320312
 31
0.0
  0
LINE
  5
844
330
1FF
100
AcDbEntity
  8
0
  6
Continuous
 62
     7
100
AcDbLine
 10
10290.3344726563
 20
2350.8298339844
 30
0.0
 11
10290.3344726563
 21
2824.7556152344
 31
0.0
  0
LINE
  5
845
330
1FF
100
AcDbEntity
  8
0
  6
Continuous
 62
     7
100
AcDbLine
 10
10311.6928710938
 20
6233.777099609399
 30
0.0
 11
10311.6928710938
 21
6308.1650390625
 31
0.0
  0
LINE
  5
846
330
1FF
100
AcDbEntity
  8
0
  6
Continuous
 62
     7
100
AcDbLine
 10
10323.857421875
 20
5882.9790039062
 30
0.0
 11
10323.857421875
 21
6281.7788085937
 31
0.0
  0
LINE
  5
847
330
1FF
100
AcDbEntity
  8
0
  6
Continuous
 62
     7
100
AcDbLine
 10
10021.556640625
 20
2762.5619506836
 30
0.0
 11
10021.6015625
 21
2811.466369628901
 31
0.0
  0
LINE
  5
848
330
1FF
100
AcDbEntity
  8
0
  6
Continuous
 62
     7
100
AcDbLine
 10
10021.556640625
 20
2762.5619506836
 30
0.0
 11
10021.6049804688
 21
2811.4087524414
 31
0.0
  0
LINE
  5
849
330
1FF
100
AcDbEntity
  8
0
  6
Continuous
 62
     7
100
AcDbLine
 10
10021.251953125
 20
921.7490234375
 30
0.0
 11
10021.9643554688
 21
1231.0886230469
 31
0.0
  0
LINE
  5
84A
330
1FF
100
AcDbEntity
  8
0
  6
Continuous
 62
     7
100
AcDbLine
 10
10021.0141601562
 20
2708.893737793
 30
0.0
 11
10021.029296875
 21
2713.6743164062
 31
0.0
  0
LINE
  5
84B
330
1FF
100
AcDbEntity
  8
0
  6
Continuous
 62
     7
100
AcDbLine
 10
10021.3432617188
 20
2811.478576660201
 30
0.0
 11
10021.3857421875
 21
2824.7312011719
 31
0.0
  0
LINE
  5
84C
330
1FF
100
AcDbEntity
  8
0
  6
Continuous
 62
     7
100
AcDbLine
 10
10021.37890625
 20
2713.8635253906
 30
0.0
 11
10021.556640625
 21
2762.5619506836
 31
0.0
  0
LINE
  5
84D
330
1FF
100
AcDbEntity
  8
0
  6
Continuous
 62
     7
100
AcDbLine
 10
10021.3725585938
 20
2713.6578979492
 30
0.0
 11
10021.556640625
 21
2762.5619506836
 31
0.0
  0
LINE
  5
84E
330
1FF
100
AcDbEntity
  8
0
  6
Continuous
 62
     7
100
AcDbLine
 10
10021.9575195312
 20
1235.3527832031
 30
0.0
 11
10021.9809570313
 21
1238.3391113281
 31
0.0
  0
LINE
  5
84F
330
1FF
100
AcDbEntity
  8
0
  6
Continuous
 62
     7
100
AcDbLine
 10
10021.0141601562
 20
46.3713378906
 30
0.0
 11
10021.9809570313
 21
135.4396972656
 31
0.0
  0
LINE
  5
850
330
1FF
100
AcDbEntity
  8
0
  6
Continuous
 62
     7
100
AcDbLine
 10
10021.9482421875
 20
1235.3508300781
 30
0.0
 11
10021.9809570313
 21
1238.3391113281
 31
0.0
  0
LINE
  5
851
330
1FF
100
AcDbEntity
  8
0
  6
Continuous
 62
     7
100
AcDbLine
 10
2692.306640625
 20
9199.083251953101
 30
0.0
 11
2866.4729003906
 21
9206.226318359398
 31
0.0
  0
LINE
  5
852
330
1FF
100
AcDbEntity
  8
0
  6
Continuous
 62
     7
100
AcDbLine
 10
4389.5222167969
 20
9250.069091796898
 30
0.0
 11
4555.319335937499
 21
9250.069091796898
 31
0.0
  0
LINE
  5
853
330
1FF
100
AcDbEntity
  8
0
  6
Continuous
 62
     7
100
AcDbLine
 10
3992.5661621094
 20
9289.571533203101
 30
0.0
 11
4389.5045166016
 21
9289.571533203101
 31
0.0
  0
LINE
  5
854
330
1FF
100
AcDbEntity
  8
0
  6
Continuous
 62
     7
100
AcDbLine
 10
5932.914245605501
 20
9326.700439453102
 30
0.0
 11
5955.337402343801
 21
9326.700439453102
 31
0.0
  0
LINE
  5
855
330
1FF
100
AcDbEntity
  8
0
  6
Continuous
 62
     7
100
AcDbLine
 10
4536.3392333984
 20
9360.775146484398
 30
0.0
 11
4555.108520507801
 21
9360.775146484398
 31
0.0
  0
LINE
  5
856
330
1FF
100
AcDbEntity
  8
0
  6
Continuous
 62
     7
100
AcDbLine
 10
4520.451171875
 20
9424.275146484399
 30
0.0
 11
4555.319335937499
 21
9424.275146484399
 31
0.0
  0
LINE
  5
857
330
1FF
100
AcDbEntity
  8
0
  6
Continuous
 62
     7
100
AcDbLine
 10
4389.5222167969
 20
9433.373779296898
 30
0.0
 11
4555.319335937499
 21
9433.373779296898
 31
0.0
  0
LINE
  5
858
330
1FF
100
AcDbEntity
  8
0
  6
Continuous
 62
     7
100
AcDbLine
 10
4704.5176391602
 20
9454.090087890602
 30
0.0
 11
5498.3004302979
 21
9454.090087890602
 31
0.0
  0
LINE
  5
859
330
1FF
100
AcDbEntity
  8
0
  6
Continuous
 62
     7
100
AcDbLine
 10
5596.1088867188
 20
9454.090087890602
 30
0.0
 11
5799.063369751
 21
9454.090087890602
 31
0.0
  0
LINE
  5
85A
330
1FF
100
AcDbEntity
  8
0
  6
Continuous
 62
     7
100
AcDbLine
 10
4535.0964355469
 20
9480.5788574219
 30
0.0
 11
5927.612182617199
 21
9480.5788574219
 31
0.0
  0
LINE
  5
85B
330
1FF
100
AcDbEntity
  8
0
  6
Continuous
 62
     7
100
AcDbLine
 10
5927.601867675799
 20
9523.148193359398
 30
0.0
 11
5932.9146118164
 21
9523.148193359398
 31
0.0
  0
LINE
  5
85C
330
1FF
100
AcDbEntity
  8
0
  6
Continuous
 62
     7
100
AcDbLine
 10
4535.0964355469
 20
9526.308837890601
 30
0.0
 11
5927.612182617199
 21
9526.308837890601
 31
0.0
  0
LINE
  5
85D
330
1FF
100
AcDbEntity
  8
0
  6
Continuous
 62
     7
100
AcDbLine
 10
5498.3236999512
 20
9536.666259765601
 30
0.0
 11
5596.1321563721
 21
9536.666259765601
 31
0.0
  0
LINE
  5
85E
330
1FF
100
AcDbEntity
  8
0
  6
Continuous
 62
     7
100
AcDbLine
 10
4943.2456054688
 20
9542.455810546899
 30
0.0
 11
5052.1761474609
 21
9542.455810546899
 31
0.0
  0
LINE
  5
85F
330
1FF
100
AcDbEntity
  8
0
  6
Continuous
 62
     7
100
AcDbLine
 10
5292.454406738301
 20
9602.011474609399
 30
0.0
 11
5412.5380249023
 21
9602.011474609399
 31
0.0
  0
LINE
  5
861
330
1FF
100
AcDbEntity
  8
0
  6
Continuous
 62
     7
100
AcDbLine
 10
8717.251464843801
 20
8845.837158203101
 30
0.0
 11
8730.416015625001
 21
8842.875244140602
 31
0.0
  0
LINE
  5
862
330
1FF
100
AcDbEntity
  8
0
  6
Continuous
 62
     7
100
AcDbLine
 10
8717.629150390601
 20
8845.833740234398
 30
0.0
 11
8730.683837890602
 21
8842.769775390602
 31
0.0
  0
LINE
  5
863
330
1FF
100
AcDbEntity
  8
0
  6
Continuous
 62
     7
100
AcDbLine
 10
8038.2590332031
 20
9014.239990234399
 30
0.0
 11
8046.4201660156
 21
9011.5344238281
 31
0.0
  0
LINE
  5
864
330
1FF
100
AcDbEntity
  8
0
  6
Continuous
 62
     7
100
AcDbLine
 10
8046.4201660156
 20
9011.5344238281
 30
0.0
 11
8049.466552734399
 21
9008.330322265601
 31
0.0
  0
LINE
  5
865
330
1FF
100
AcDbEntity
  8
0
  6
Continuous
 62
     7
100
AcDbLine
 10
8748.8706054688
 20
8823.531494140601
 30
0.0
 11
8751.2084960938
 21
8817.1984863281
 31
0.0
  0
LINE
  5
866
330
1FF
100
AcDbEntity
  8
0
  6
Continuous
 62
     7
100
AcDbLine
 10
8748.820312499999
 20
8823.645751953101
 30
0.0
 11
8751.1708984375
 21
8817.274658203102
 31
0.0
  0
LINE
  5
867
330
1FF
100
AcDbEntity
  8
0
  6
Continuous
 62
     7
100
AcDbLine
 10
10584.814453125
 20
940.9033203125
 30
0.0
 11
10577.6713867188
 21
1228.1369628906
 31
0.0
  0
LINE
  5
868
330
1FF
100
AcDbEntity
  8
0
  6
Continuous
 62
     7
100
AcDbLine
 10
10584.814453125
 20
1928.6221923828
 30
0.0
 11
10577.6713867188
 21
2215.8557128906
 31
0.0
  0
LINE
  5
869
330
1FF
100
AcDbEntity
  8
0
  6
Continuous
 62
     7
100
AcDbLine
 10
10326.9267578125
 20
5417.5935058594
 30
0.0
 11
10326.9267578125
 21
5883.0041503906
 31
0.0
  0
LINE
  5
86A
330
1FF
100
AcDbEntity
  8
0
  6
Continuous
 62
     7
100
AcDbLine
 10
10326.9267578125
 20
6281.7788085937
 30
0.0
 11
10326.9267578125
 21
6372.95703125
 31
0.0
  0
LINE
  5
86B
330
1FF
100
AcDbEntity
  8
0
  6
Continuous
 62
     7
100
AcDbLine
 10
10341.4174804688
 20
3806.4546203613
 30
0.0
 11
10341.4174804688
 21
3807.559753418
 31
0.0
  0
LINE
  5
86C
330
1FF
100
AcDbEntity
  8
0
  6
Continuous
 62
     7
100
AcDbLine
 10
10390.4267578125
 20
5417.5935058594
 30
0.0
 11
10390.4267578125
 21
5883.0041503906
 31
0.0
  0
LINE
  5
86D
330
1FF
100
AcDbEntity
  8
0
  6
Continuous
 62
     7
100
AcDbLine
 10
10390.4267578125
 20
6281.7788085937
 30
0.0
 11
10390.4267578125
 21
6372.95703125
 31
0.0
  0
LINE
  5
86E
330
1FF
100
AcDbEntity
  8
0
  6
Continuous
 62
     7
100
AcDbLine
 10
10425.888671875
 20
5285.9266357422
 30
0.0
 11
10425.888671875
 21
5883.0048828125
 31
0.0
  0
LINE
  5
86F
330
1FF
100
AcDbEntity
  8
0
  6
Continuous
 62
     7
100
AcDbLine
 10
10425.888671875
 20
6308.1833496094
 30
0.0
 11
10425.888671875
 21
6448.523193359399
 31
0.0
  0
LINE
  5
870
330
1FF
100
AcDbEntity
  8
0
  6
Continuous
 62
     7
100
AcDbLine
 10
10435.2822265625
 20
6308.1918945312
 30
0.0
 11
10435.2822265625
 21
6533.8493652344
 31
0.0
  0
LINE
  5
871
330
1FF
100
AcDbEntity
  8
0
  6
Continuous
 62
     7
100
AcDbLine
 10
10507.162109375
 20
6254.502197265601
 30
0.0
 11
10507.162109375
 21
6282.46484375
 31
0.0
  0
LINE
  5
872
330
1FF
100
AcDbEntity
  8
0
  6
Continuous
 62
     7
100
AcDbLine
 10
10508.849609375
 20
6281.7834472656
 30
0.0
 11
10508.849609375
 21
7246.0817871094
 31
0.0
  0
LINE
  5
873
330
1FF
100
AcDbEntity
  8
0
  6
Continuous
 62
     7
100
AcDbLine
 10
10517.5
 20
1256.4013671875
 30
0.0
 11
10517.5
 21
2244.1201171875
 31
0.0
  0
LINE
  5
874
330
1FF
100
AcDbEntity
  8
0
  6
Continuous
 62
     7
100
AcDbLine
 10
10559.654296875
 20
46.3713378906
 30
0.0
 11
10559.654296875
 21
2824.7315673828
 31
0.0
  0
LINE
  5
875
330
1FF
100
AcDbEntity
  8
0
  6
Continuous
 62
     7
100
AcDbLine
 10
10577.6713867188
 20
1228.1369628906
 30
0.0
 11
10577.6713867188
 21
2215.8557128906
 31
0.0
  0
LINE
  5
876
330
1FF
100
AcDbEntity
  8
0
  6
Continuous
 62
     7
100
AcDbLine
 10
10584.814453125
 20
940.9033203125
 30
0.0
 11
10584.814453125
 21
1928.6221923828
 31
0.0
  0
LINE
  5
877
330
1FF
100
AcDbEntity
  8
0
  6
Continuous
 62
     7
100
AcDbLine
 10
10609.4599609375
 20
3917.4806213379
 30
0.0
 11
10609.4599609375
 21
4418.4232177734
 31
0.0
  0
LINE
  5
878
330
1FF
100
AcDbEntity
  8
0
  6
Continuous
 62
     7
100
AcDbLine
 10
10628.6572265625
 20
5882.9790039062
 30
0.0
 11
10628.6572265625
 21
6255.188232421899
 31
0.0
  0
LINE
  5
879
330
1FF
100
AcDbEntity
  8
0
  6
Continuous
 62
     7
100
AcDbLine
 10
10668.1596679688
 20
6282.4692382812
 30
0.0
 11
10668.1596679688
 21
7246.0817871094
 31
0.0
  0
LINE
  5
87A
330
1FF
100
AcDbEntity
  8
0
  6
Continuous
 62
     7
100
AcDbLine
 10
10689.2817382813
 20
6308.1918945312
 30
0.0
 11
10689.2817382813
 21
6533.8493652344
 31
0.0
  0
LINE
  5
87B
330
1FF
100
AcDbEntity
  8
0
  6
Continuous
 62
     7
100
AcDbLine
 10
10705.2890625
 20
5285.9266357422
 30
0.0
 11
10705.2890625
 21
5883.690673828101
 31
0.0
  0
LINE
  5
87C
330
1FF
100
AcDbEntity
  8
0
  6
Continuous
 62
     7
100
AcDbLine
 10
10705.2890625
 20
6308.1833496094
 30
0.0
 11
10705.2890625
 21
6401.4428710938
 31
0.0
  0
LINE
  5
87D
330
1FF
100
AcDbEntity
  8
0
  6
Continuous
 62
     7
100
AcDbLine
 10
10705.2890625
 20
6401.455078125
 30
0.0
 11
10705.2890625
 21
6448.523193359399
 31
0.0
  0
LINE
  5
87E
330
1FF
100
AcDbEntity
  8
0
  6
Continuous
 62
     7
100
AcDbLine
 10
10021.9809570313
 20
1238.3391113281
 30
0.0
 11
10103.7172851562
 21
1273.4555664062
 31
0.0
  0
LINE
  5
87F
330
1FF
100
AcDbEntity
  8
0
  6
Continuous
 62
     7
100
AcDbLine
 10
8730.416015625001
 20
8842.875244140602
 30
0.0
 11
8736.265380859398
 21
8839.435302734399
 31
0.0
  0
LINE
  5
880
330
1FF
100
AcDbEntity
  8
0
  6
Continuous
 62
     7
100
AcDbLine
 10
8730.683837890602
 20
8842.769775390602
 30
0.0
 11
8736.458496093801
 21
8839.282958984398
 31
0.0
  0
LINE
  5
881
330
1FF
100
AcDbEntity
  8
0
  6
Continuous
 62
     7
100
AcDbLine
 10
8736.265380859398
 20
8839.435302734399
 30
0.0
 11
8743.5493164063
 21
8832.344482421898
 31
0.0
  0
LINE
  5
882
330
1FF
100
AcDbEntity
  8
0
  6
Continuous
 62
     7
100
AcDbLine
 10
8736.458496093801
 20
8839.282958984398
 30
0.0
 11
8743.662109375
 21
8832.197509765602
 31
0.0
  0
LINE
  5
883
330
1FF
100
AcDbEntity
  8
0
  6
Continuous
 62
     7
100
AcDbLine
 10
8743.5493164063
 20
8832.344482421898
 30
0.0
 11
8748.820312499999
 21
8823.645751953101
 31
0.0
  0
LINE
  5
884
330
1FF
100
AcDbEntity
  8
0
  6
Continuous
 62
     7
100
AcDbLine
 10
8743.662109375
 20
8832.197509765602
 30
0.0
 11
8748.8706054688
 21
8823.531494140601
 31
0.0
  0
LINE
  5
885
330
1FF
100
AcDbEntity
  8
0
  6
Continuous
 62
     7
100
AcDbLine
 10
10219.703125
 20
6220.8642578125
 30
0.0
 11
10224.4252929688
 21
6210.7683105469
 31
0.0
  0
LINE
  5
886
330
1FF
100
AcDbEntity
  8
0
  6
Continuous
 62
     7
100
AcDbLine
 10
10219.7890625
 20
6220.77734375
 30
0.0
 11
10224.4233398438
 21
6210.6240234375
 31
0.0
  0
LINE
  5
887
330
1FF
100
AcDbEntity
  8
0
  6
Continuous
 62
     7
100
AcDbLine
 10
10739.3637695312
 20
5393.612426757801
 30
0.0
 11
10739.3637695312
 21
5883.685546875
 31
0.0
  0
LINE
  5
888
330
1FF
100
AcDbEntity
  8
0
  6
Continuous
 62
     7
100
AcDbLine
 10
10739.3637695312
 20
6282.46484375
 30
0.0
 11
10739.3637695312
 21
6348.9763183594
 31
0.0
  0
LINE
  5
889
330
1FF
100
AcDbEntity
  8
0
  6
Continuous
 62
     7
100
AcDbLine
 10
10802.8637695313
 20
5393.612426757801
 30
0.0
 11
10802.8637695313
 21
5883.685546875
 31
0.0
  0
LINE
  5
88A
330
1FF
100
AcDbEntity
  8
0
  6
Continuous
 62
     7
100
AcDbLine
 10
10802.8637695313
 20
6282.46484375
 30
0.0
 11
10802.8637695313
 21
6348.9763183594
 31
0.0
  0
LINE
  5
88B
330
1FF
100
AcDbEntity
  8
0
  6
Continuous
 62
     7
100
AcDbLine
 10
10811.9619140625
 20
5883.6647949219
 30
0.0
 11
10811.9619140625
 21
6282.46484375
 31
0.0
  0
LINE
  5
88C
330
1FF
100
AcDbEntity
  8
0
  6
Continuous
 62
     7
100
AcDbLine
 10
10813.6586914063
 20
6233.759521484399
 30
0.0
 11
10813.6586914063
 21
6308.1833496094
 31
0.0
  0
LINE
  5
88D
330
1FF
100
AcDbEntity
  8
0
  6
Continuous
 62
     7
100
AcDbLine
 10
10859.1669921875
 20
1829.2481689453
 30
0.0
 11
10859.1669921875
 21
2827.0337524414
 31
0.0
  0
LINE
  5
88E
330
1FF
100
AcDbEntity
  8
0
  6
Continuous
 62
     7
100
AcDbLine
 10
10859.1669921875
 20
5127.425537109401
 30
0.0
 11
10859.1669921875
 21
6215.5
 31
0.0
  0
LINE
  5
88F
330
1FF
100
AcDbEntity
  8
0
  6
Continuous
 62
     7
100
AcDbLine
 10
10901.736328125
 20
2827.0337524414
 30
0.0
 11
10901.736328125
 21
5128.183471679699
 31
0.0
  0
LINE
  5
890
330
1FF
100
AcDbEntity
  8
0
  6
Continuous
 62
     7
100
AcDbLine
 10
10904.8974609375
 20
1829.2481689453
 30
0.0
 11
10904.8974609375
 21
6215.5
 31
0.0
  0
LINE
  5
891
330
1FF
100
AcDbEntity
  8
0
  6
Continuous
 62
     7
100
AcDbLine
 10
10915.2543945312
 20
2713.6578979492
 30
0.0
 11
10915.2543945312
 21
2811.4431152344
 31
0.0
  0
LINE
  5
892
330
1FF
100
AcDbEntity
  8
0
  6
Continuous
 62
     7
100
AcDbLine
 10
10921.0444335938
 20
4897.000244140599
 30
0.0
 11
10921.0444335938
 21
5005.9052734375
 31
0.0
  0
LINE
  5
893
330
1FF
100
AcDbEntity
  8
0
  6
Continuous
 62
     7
100
AcDbLine
 10
10980.599609375
 20
5854.291748046899
 30
0.0
 11
10980.599609375
 21
5974.3471679687
 31
0.0
  0
LINE
  5
8AD
330
1FF
100
AcDbEntity
  8
0
  6
Continuous
 62
     7
100
AcDbLine
 10
9995.854003906302
 20
1217.5576171875
 30
0.0
 11
10021.9643554688
 21
1231.0886230469
 31
0.0
  0
LINE
  5
8AE
330
1FF
100
AcDbEntity
  8
0
  6
Continuous
 62
     7
100
AcDbLine
 10
10103.7172851562
 20
1273.4555664062
 30
0.0
 11
10283.1909179688
 21
1366.4641113281
 31
0.0
  0
LINE
  5
8AF
330
1FF
100
AcDbEntity
  8
0
  6
Continuous
 62
     7
100
AcDbLine
 10
9995.854003906302
 20
1217.5576171875
 30
0.0
 11
10021.9604492188
 21
1231.0869140625
 31
0.0
  0
LINE
  5
8B0
330
1FF
100
AcDbEntity
  8
0
  6
Continuous
 62
     7
100
AcDbLine
 10
10559.654296875
 20
927.8645019530999
 30
0.0
 11
10584.814453125
 21
940.9033203125
 31
0.0
  0
ARC
  5
8B1
330
1FF
100
AcDbEntity
  8
0
  6
Continuous
 62
     7
100
AcDbCircle
 10
814.2553710937999
 20
4947.2844238281
 30
0.0
 40
70.6277803472
100
AcDbArc
 50
354.4413384827
 51
0.2373299972
  0
ARC
  5
8B2
330
1FF
100
AcDbEntity
  8
0
  6
Continuous
 62
     7
100
AcDbCircle
 10
815.8818359375
 20
4947.2348632812
 30
0.0
 40
69.00609289870001
100
AcDbArc
 50
270.0373586303
 51
354.3512346271
  0
ARC
  5
8B3
330
1FF
100
AcDbEntity
  8
0
  6
Continuous
 62
     7
100
AcDbCircle
 10
815.9643554686999
 20
4947.225708007801
 30
0.0
 40
68.99519120890001
100
AcDbArc
 50
179.6083892827
 51
269.9686364546
  0
ARC
  5
8B4
330
1FF
100
AcDbEntity
  8
0
  6
Continuous
 62
     7
100
AcDbCircle
 10
815.9428710938
 20
4948.695190429699
 30
0.0
 40
68.96706377640001
100
AcDbArc
 50
127.4983216139
 51
269.9867501163
  0
ARC
  5
8B5
330
1FF
100
AcDbEntity
  8
0
  6
Continuous
 62
     7
100
AcDbCircle
 10
815.9116210938
 20
4948.6948242188
 30
0.0
 40
68.9663962044
100
AcDbArc
 50
270.0125991945
 51
52.4746324308
  0
ARC
  5
8B6
330
1FF
100
AcDbEntity
  8
0
  6
Continuous
 62
     7
100
AcDbCircle
 10
815.9282226562
 20
4947.203247070301
 30
0.0
 40
68.9552799379
100
AcDbArc
 50
269.9988363634
 51
359.9988387384
  0
ARC
  5
8B7
330
1FF
100
AcDbEntity
  8
0
  6
Continuous
 62
     7
100
AcDbCircle
 10
815.9252929687999
 20
4947.203247070301
 30
0.0
 40
68.9552143728
100
AcDbArc
 50
178.7276500496
 51
270.0012027965
  0
ARC
  5
8B8
330
1FF
100
AcDbEntity
  8
0
  6
Continuous
 62
     7
100
AcDbCircle
 10
815.9238281249999
 20
4948.693969726599
 30
0.0
 40
68.953485838
100
AcDbArc
 50
127.48337716
 51
270.0023229476
  0
ARC
  5
8B9
330
1FF
100
AcDbEntity
  8
0
  6
Continuous
 62
     7
100
AcDbCircle
 10
815.9296875
 20
4948.693969726599
 30
0.0
 40
68.953485838
100
AcDbArc
 50
269.997668401
 51
52.4891056017
  0
ARC
  5
8BA
330
1FF
100
AcDbEntity
  8
0
  6
Continuous
 62
     7
100
AcDbCircle
 10
805.2280273438
 20
3244.1571655273
 30
0.0
 40
56.85453542
100
AcDbArc
 50
90.0135945809
 51
269.9863949463999
  0
ARC
  5
8BB
330
1FF
100
AcDbEntity
  8
0
  6
Continuous
 62
     7
100
AcDbCircle
 10
805.201171875
 20
3244.1571655273
 30
0.0
 40
56.85453542
100
AcDbArc
 50
270.0135964022
 51
89.98640359780001
  0
ARC
  5
8BC
330
1FF
100
AcDbEntity
  8
0
  6
Continuous
 62
     7
100
AcDbCircle
 10
802.6171874999999
 20
4948.0241699219
 30
0.0
 40
55.64893012449999
100
AcDbArc
 50
178.9597398776
 51
186.2814431207
  0
ARC
  5
8BD
330
1FF
100
AcDbEntity
  8
0
  6
Continuous
 62
     7
100
AcDbCircle
 10
4997.736999511699
 20
4951.403930664099
 30
0.0
 40
54.5178842809
100
AcDbArc
 50
133.5127949517
 51
179.9348586647
  0
ARC
  5
8BE
330
1FF
100
AcDbEntity
  8
0
  6
Continuous
 62
     7
100
AcDbCircle
 10
4997.710693359401
 20
4951.44140625
 30
0.0
 40
54.4829440374
100
AcDbArc
 50
0.0257579107
 51
179.9742415354
  0
ARC
  5
8BF
330
1FF
100
AcDbEntity
  8
0
  6
Continuous
 62
     7
100
AcDbCircle
 10
4997.710693359401
 20
4951.490234375
 30
0.0
 40
54.4829440374
100
AcDbArc
 50
180.0257584646
 51
359.9742420877
  0
ARC
  5
8C0
330
1FF
100
AcDbEntity
  8
0
  6
Continuous
 62
     7
100
AcDbCircle
 10
4997.710693359401
 20
4951.4658203125
 30
0.0
 40
54.4653904691
100
AcDbArc
 50
180.000005009
 51
157.5723821899
  0
ARC
  5
8C1
330
1FF
100
AcDbEntity
  8
0
  6
Continuous
 62
     7
100
AcDbCircle
 10
815.9287109375
 20
4932.8305664062
 30
0.0
 40
41.9655570827
100
AcDbArc
 50
269.9970058727
 51
359.9598664721
  0
ARC
  5
8C2
330
1FF
100
AcDbEntity
  8
0
  6
Continuous
 62
     7
100
AcDbCircle
 10
815.9243164061999
 20
4932.8305664062
 30
0.0
 40
41.9655570827
100
AcDbArc
 50
180.0401291825999
 51
270.0029959486
  0
ARC
  5
8C3
330
1FF
100
AcDbEntity
  8
0
  6
Continuous
 62
     7
100
AcDbCircle
 10
3038.3752441406
 20
8787.973388671899
 30
0.0
 40
3055.2748409348
100
AcDbArc
 50
359.0189379879
 51
0.297938828
  0
ARC
  5
8C4
330
1FF
100
AcDbEntity
  8
0
  6
Continuous
 62
     7
100
AcDbCircle
 10
4408.508911132801
 20
8814.486083984398
 30
0.0
 40
1684.9775690953
100
AcDbArc
 50
359.6386834198
 51
1.0605114129
  0
ARC
  5
8C5
330
1FF
100
AcDbEntity
  8
0
  6
Continuous
 62
     7
100
AcDbCircle
 10
4512.042480468799
 20
8792.639892578101
 30
0.0
 40
1581.4452524806
100
AcDbArc
 50
358.887730801
 51
0.4064928121
  0
ARC
  5
8C6
330
1FF
100
AcDbEntity
  8
0
  6
Continuous
 62
     7
100
AcDbCircle
 10
4658.9613647461
 20
8791.760498046899
 30
0.0
 40
1434.528764364
100
AcDbArc
 50
358.8066125929
 51
0.4832776653
  0
ARC
  5
8C7
330
1FF
100
AcDbEntity
  8
0
  6
Continuous
 62
     7
100
AcDbCircle
 10
5226.2843017578
 20
8810.924072265601
 30
0.0
 40
867.0602038591001
100
AcDbArc
 50
359.533249258
 51
1.177815216099999
  0
ARC
  5
8C8
330
1FF
100
AcDbEntity
  8
0
  6
Continuous
 62
     7
100
AcDbCircle
 10
5242.6230163574
 20
8796.686767578101
 30
0.0
 40
850.7217597378
100
AcDbArc
 50
358.8067188876999
 51
0.4831552022000001
  0
ARC
  5
8C9
330
1FF
100
AcDbEntity
  8
0
  6
Continuous
 62
     7
100
AcDbCircle
 10
5365.2968139648
 20
8879.883544921899
 30
0.0
 40
141.7613180375
100
AcDbArc
 50
270.010809685
 51
12.9902898249
  0
ARC
  5
8CA
330
1FF
100
AcDbEntity
  8
0
  6
Continuous
 62
     7
100
AcDbCircle
 10
5365.3383789063
 20
8879.871337890602
 30
0.0
 40
141.7464407179
100
AcDbArc
 50
90.00596525959998
 51
269.9940447583
  0
ARC
  5
8CB
330
1FF
100
AcDbEntity
  8
0
  6
Continuous
 62
     7
100
AcDbCircle
 10
5365.3090209961
 20
8879.871337890602
 30
0.0
 40
141.7464407179
100
AcDbArc
 50
270.0059670809
 51
89.99403291909999
  0
CIRCLE
  5
8CC
330
1FF
100
AcDbEntity
  8
0
  6
Continuous
 62
     7
100
AcDbCircle
 10
5365.3235168457
 20
8879.871337890602
 30
0.0
 40
141.7367370815
  0
ARC
  5
8CD
330
1FF
100
AcDbEntity
  8
0
  6
Continuous
 62
     7
100
AcDbCircle
 10
5270.6175537109
 20
7958.096435546899
 30
0.0
 40
95.3636011935
100
AcDbArc
 50
270.0431369703
 51
321.3283022025
  0
ARC
  5
8CE
330
1FF
100
AcDbEntity
  8
0
  6
Continuous
 62
     7
100
AcDbCircle
 10
5270.7087402344
 20
7958.0070800781
 30
0.0
 40
95.26485417629999
100
AcDbArc
 50
144.9031599211
 51
269.9884713239
  0
ARC
  5
8CF
330
1FF
100
AcDbEntity
  8
0
  6
Continuous
 62
     7
100
AcDbCircle
 10
5267.142761230499
 20
7953.147705078101
 30
0.0
 40
95.26080702079999
100
AcDbArc
 50
270.0096485528
 51
89.9903514472
  0
ARC
  5
8D0
330
1FF
100
AcDbEntity
  8
0
  6
Continuous
 62
     7
100
AcDbCircle
 10
5267.175170898401
 20
7953.147705078101
 30
0.0
 40
95.26080702079999
100
AcDbArc
 50
90.00965356180001
 51
269.9903564561
  0
CIRCLE
  5
8D1
330
1FF
100
AcDbEntity
  8
0
  6
Continuous
 62
     7
100
AcDbCircle
 10
5267.1587524414
 20
7953.147705078101
 30
0.0
 40
95.25000069849999
  0
ARC
  5
8D2
330
1FF
100
AcDbEntity
  8
0
  6
Continuous
 62
     7
100
AcDbCircle
 10
5270.6892700195
 20
7958.003662109399
 30
0.0
 40
95.25000069849999
100
AcDbArc
 50
144.9580063402
 51
321.3333565425
  0
ARC
  5
8D3
330
1FF
100
AcDbEntity
  8
0
  6
Continuous
 62
     7
100
AcDbCircle
 10
5352.496215820301
 20
5914.3166503906
 30
0.0
 40
60.0532068324
100
AcDbArc
 50
0.0158009223
 51
179.9841999512
  0
ARC
  5
8D4
330
1FF
100
AcDbEntity
  8
0
  6
Continuous
 62
     7
100
AcDbCircle
 10
5352.496215820301
 20
5914.350341796899
 30
0.0
 40
60.0532068324
100
AcDbArc
 50
180.0158000488
 51
359.9841990644
  0
CIRCLE
  5
8D5
330
1FF
100
AcDbEntity
  8
0
  6
Continuous
 62
     7
100
AcDbCircle
 10
5352.496215820301
 20
5914.333496093799
 30
0.0
 40
60.0418461869
  0
ARC
  5
8D6
330
1FF
100
AcDbEntity
  8
0
  6
Continuous
 62
     7
100
AcDbCircle
 10
815.6689453125
 20
6180.01953125
 30
0.0
 40
43.74006190319999
100
AcDbArc
 50
89.6621676878
 51
105.0210228291
  0
ARC
  5
8D7
330
1FF
100
AcDbEntity
  8
0
  6
Continuous
 62
     7
100
AcDbCircle
 10
4649.0765380859
 20
6270.9895019531
 30
0.0
 40
37.2245707488
100
AcDbArc
 50
180.0275479742
 51
359.9724495248
  0
ARC
  5
8D8
330
1FF
100
AcDbEntity
  8
0
  6
Continuous
 62
     7
100
AcDbCircle
 10
4649.0765380859
 20
6270.9536132812
 30
0.0
 40
37.2245707488
100
AcDbArc
 50
0.0275503984
 51
179.9724520258
  0
CIRCLE
  5
8D9
330
1FF
100
AcDbEntity
  8
0
  6
Continuous
 62
     7
100
AcDbCircle
 10
4649.0765380859
 20
6270.9719238281
 30
0.0
 40
37.2120299312
  0
ARC
  5
8DA
330
1FF
100
AcDbEntity
  8
0
  6
Continuous
 62
     7
100
AcDbCircle
 10
5359.512573242199
 20
8890.470458984399
 30
0.0
 40
29.5236623926
100
AcDbArc
 50
270.0527128955
 51
89.94728710450001
  0
ARC
  5
8DB
330
1FF
100
AcDbEntity
  8
0
  6
Continuous
 62
     7
100
AcDbCircle
 10
5359.5671386719
 20
8890.469970703101
 30
0.0
 40
29.5236623926
100
AcDbArc
 50
90.05271107430001
 51
269.9472989436
  0
CIRCLE
  5
8DC
330
1FF
100
AcDbEntity
  8
0
  6
Continuous
 62
     7
100
AcDbCircle
 10
5359.5400390625
 20
8890.470458984399
 30
0.0
 40
29.5041210094
  0
ARC
  5
8DD
330
1FF
100
AcDbEntity
  8
0
  6
Continuous
 62
     7
100
AcDbCircle
 10
6037.2145385742
 20
2608.1300048828
 30
0.0
 40
1048.2216115643
100
AcDbArc
 50
90.8343101116
 51
96.08152097920001
  0
ARC
  5
8DE
330
1FF
100
AcDbEntity
  8
0
  6
Continuous
 62
     7
100
AcDbCircle
 10
10193.1235351563
 20
3232.6734008789
 30
0.0
 40
56.8853331406
100
AcDbArc
 50
0.8359910886999999
 51
89.96171246400001
  0
ARC
  5
8DF
330
1FF
100
AcDbEntity
  8
0
  6
Continuous
 62
     7
100
AcDbCircle
 10
10193.1987304688
 20
3232.6745605469
 30
0.0
 40
56.8842364151
100
AcDbArc
 50
90.0376368468
 51
180.8390117862
  0
ARC
  5
8E0
330
1FF
100
AcDbEntity
  8
0
  6
Continuous
 62
     7
100
AcDbCircle
 10
10193.1479492188
 20
3232.4311828613
 30
0.0
 40
56.85453542
100
AcDbArc
 50
270.0135964022
 51
89.98640359780001
  0
ARC
  5
8E1
330
1FF
100
AcDbEntity
  8
0
  6
Continuous
 62
     7
100
AcDbCircle
 10
10193.1748046875
 20
3232.4311828613
 30
0.0
 40
56.85453542
100
AcDbArc
 50
90.0135945809
 51
269.9863949463999
  0
ARC
  5
8E2
330
1FF
100
AcDbEntity
  8
0
  6
Continuous
 62
     7
100
AcDbCircle
 10
10193.16796875
 20
3232.6928710937
 30
0.0
 40
56.8517340016
100
AcDbArc
 50
90.00645020309999
 51
180.0053188961
  0
ARC
  5
8E3
330
1FF
100
AcDbEntity
  8
0
  6
Continuous
 62
     7
100
AcDbCircle
 10
10193.1547851563
 20
3232.6932373047
 30
0.0
 40
56.8516684365
100
AcDbArc
 50
0.2514145409
 51
89.9935889568
  0
ARC
  5
8E4
330
1FF
100
AcDbEntity
  8
0
  6
Continuous
 62
     7
100
AcDbCircle
 10
10193.1591796875
 20
3232.4311828613
 30
0.0
 40
56.8436277697
100
AcDbArc
 50
89.99760510809998
 51
249.6670192977
  0
ARC
  5
8E5
330
1FF
100
AcDbEntity
  8
0
  6
Continuous
 62
     7
100
AcDbCircle
 10
10193.1635742188
 20
3232.4311828613
 30
0.0
 40
56.8436277697
100
AcDbArc
 50
290.2479908372
 51
90.00239990089999
  0
ARC
  5
8E6
330
1FF
100
AcDbEntity
  8
0
  6
Continuous
 62
     7
100
AcDbCircle
 10
5547.2277374268
 20
2762.5386962891
 30
0.0
 40
48.9207785335
100
AcDbArc
 50
0.0275503968
 51
179.9724520258
  0
ARC
  5
8E7
330
1FF
100
AcDbEntity
  8
0
  6
Continuous
 62
     7
100
AcDbCircle
 10
5547.2277374268
 20
2762.5855712891
 30
0.0
 40
48.9207785335
100
AcDbArc
 50
180.0275479742
 51
359.9724496016
  0
CIRCLE
  5
8E8
330
1FF
100
AcDbEntity
  8
0
  6
Continuous
 62
     7
100
AcDbCircle
 10
5547.2281188965
 20
2762.5619506836
 30
0.0
 40
48.9042948687
  0
ARC
  5
8E9
330
1FF
100
AcDbEntity
  8
0
  6
Continuous
 62
     7
100
AcDbCircle
 10
5550.788757324201
 20
2763.0181884766
 30
0.0
 40
45.34591537739999
100
AcDbArc
 50
359.4237314436
 51
5.0797926858
  0
ARC
  5
8EA
330
1FF
100
AcDbEntity
  8
0
  6
Continuous
 62
     7
100
AcDbCircle
 10
10182.1040039062
 20
6157.744873046899
 30
0.0
 40
74.93504453309999
100
AcDbArc
 50
89.7359132402
 51
98.46430077299999
  0
ARC
  5
8EB
330
1FF
100
AcDbEntity
  8
0
  6
Continuous
 62
     7
100
AcDbCircle
 10
10182.0654296875
 20
6157.837890625
 30
0.0
 40
74.84449911520001
100
AcDbArc
 50
89.70629070980001
 51
98.44639884719999
  0
ARC
  5
8EC
330
1FF
100
AcDbEntity
  8
0
  6
Continuous
 62
     7
100
AcDbCircle
 10
10172.4418945312
 20
5834.7902832031
 30
0.0
 40
24.762835162
100
AcDbArc
 50
270.3969202788
 51
330.1512912704
  0
ARC
  5
8ED
330
1FF
100
AcDbEntity
  8
0
  6
Continuous
 62
     7
100
AcDbCircle
 10
10172.5922851562
 20
5834.626953125
 30
0.0
 40
24.5487695459
100
AcDbArc
 50
270.0504999142
 51
89.9495000858
  0
ENDSEC
  0
SECTION
  2
OBJECTS
  0
DICTIONARY
  5
C
330
0
100
AcDbDictionary
281
     1
  3
ACAD_COLOR
350
91C
  3
ACAD_GROUP
350
D
  3
ACAD_LAYOUT
350
1A
  3
ACAD_MATERIAL
350
8F2
  3
ACAD_MLEADERSTYLE
350
941
  3
ACAD_MLINESTYLE
350
17
  3
ACAD_PLOTSETTINGS
350
19
  3
ACAD_PLOTSTYLENAME
350
E
  3
ACAD_SCALELIST
350
91F
  3
ACAD_TABLESTYLE
350
91D
  3
ACAD_VISUALSTYLE
350
90B
  3
ACDB_RECOMPOSE_DATA
350
946
  3
AcDbVariableDictionary
350
947
  0
DICTIONARY
  5
950
330
10
100
AcDbDictionary
280
     1
281
     1
  3
ADSK_XREC_LAYER_RECONCILED
360
951
  0
DICTIONARY
  5
952
330
1FA
100
AcDbDictionary
280
     1
281
     1
  3
ADSK_XREC_LAYER_RECONCILED
360
953
  0
DICTIONARY
  5
954
330
1FB
100
AcDbDictionary
280
     1
281
     1
  3
ADSK_XREC_LAYER_RECONCILED
360
955
  0
DICTIONARY
  5
956
330
1FC
100
AcDbDictionary
280
     1
281
     1
  3
ADSK_XREC_LAYER_RECONCILED
360
957
  0
DICTIONARY
  5
91C
102
{ACAD_REACTORS
330
C
102
}
330
C
100
AcDbDictionary
281
     1
  0
DICTIONARY
  5
D
102
{ACAD_REACTORS
330
C
102
}
330
C
100
AcDbDictionary
281
     1
  0
DICTIONARY
  5
1A
102
{ACAD_REACTORS
330
C
102
}
330
C
100
AcDbDictionary
281
     1
  3
Layout1
350
8EF
  3
Model
350
8EE
  0
DICTIONARY
  5
8F2
102
{ACAD_REACTORS
330
C
102
}
330
C
100
AcDbDictionary
281
     1
  3
ByBlock
350
8FB
  3
ByLayer
350
8F3
  3
Global
350
903
  0
DICTIONARY
  5
941
102
{ACAD_REACTORS
330
C
102
}
330
C
100
AcDbDictionary
281
     1
  3
Standard
350
942
  0
DICTIONARY
  5
17
102
{ACAD_REACTORS
330
C
102
}
330
C
100
AcDbDictionary
281
     1
  3
Standard
350
18
  0
DICTIONARY
  5
19
102
{ACAD_REACTORS
330
C
102
}
330
C
100
AcDbDictionary
281
     1
  0
ACDBDICTIONARYWDFLT
  5
E
102
{ACAD_REACTORS
330
C
102
}
330
C
100
AcDbDictionary
281
     1
  3
Normal
350
F
100
AcDbDictionaryWithDefault
340
F
  0
DICTIONARY
  5
91F
102
{ACAD_REACTORS
330
C
102
}
330
C
100
AcDbDictionary
281
     1
  3
A0
350
920
  3
A1
350
921
  3
A2
350
922
  3
A3
350
923
  3
A4
350
924
  3
A5
350
925
  3
A6
350
926
  3
A7
350
927
  3
A8
350
928
  3
A9
350
929
  3
B0
350
92A
  3
B1
350
92B
  3
B2
350
92C
  3
B3
350
92D
  3
B4
350
92E
  3
B5
350
92F
  3
B6
350
930
  3
B7
350
931
  3
B8
350
932
  3
B9
350
933
  3
C0
350
934
  3
C1
350
935
  3
C2
350
936
  3
C3
350
937
  3
C4
350
938
  3
C5
350
939
  3
C6
350
93A
  3
C7
350
93B
  3
C8
350
93C
  3
C9
350
93D
  3
D0
350
93E
  3
D1
350
93F
  3
D2
350
940
  0
DICTIONARY
  5
91D
102
{ACAD_REACTORS
330
C
102
}
330
C
100
AcDbDictionary
281
     1
  3
Standard
350
91E
  0
DICTIONARY
  5
90B
102
{ACAD_REACTORS
330
C
102
}
330
C
100
AcDbDictionary
281
     1
  3
2dWireframe
350
911
  3
3D Hidden
350
913
  3
3dWireframe
350
912
  3
Basic
350
910
  3
Brighten
350
917
  3
ColorChange
350
91B
  3
Conceptual
350
914
  3
Dim
350
916
  3
Facepattern
350
91A
  3
Flat
350
90C
  3
FlatWithEdges
350
90D
  3
Gouraud
350
90E
  3
GouraudWithEdges
350
90F
  3
Linepattern
350
919
  3
Realistic
350
915
  3
Thicken
350
918
  0
XRECORD
  5
946
102
{ACAD_REACTORS
330
C
102
}
330
C
100
AcDbXrecord
280
     1
 90
        1
330
91E
  0
DICTIONARY
  5
947
102
{ACAD_REACTORS
330
C
102
}
330
C
100
AcDbDictionary
281
     1
  3
CANNOSCALE
350
94A
  3
CMLEADERSTYLE
350
949
  3
CTABLESTYLE
350
948
  0
XRECORD
  5
951
102
{ACAD_REACTORS
330
950
102
}
330
950
100
AcDbXrecord
280
     1
290
     1
  0
XRECORD
  5
953
102
{ACAD_REACTORS
330
952
102
}
330
952
100
AcDbXrecord
280
     1
290
     1
  0
XRECORD
  5
955
102
{ACAD_REACTORS
330
954
102
}
330
954
100
AcDbXrecord
280
     1
290
     1
  0
XRECORD
  5
957
102
{ACAD_REACTORS
330
956
102
}
330
956
100
AcDbXrecord
280
     1
290
     1
  0
LAYOUT
  5
8EF
102
{ACAD_REACTORS
330
1A
102
}
330
1A
100
AcDbPlotSettings
  1

  2
none_device
  4

  6

 40
0.0
 41
0.0
 42
0.0
 43
0.0
 44
279358.6877929688
 45
244266.8080566406
 46
0.0
 47
0.0
 48
0.0
 49
0.0
140
0.0
141
0.0
142
1.0
143
1.0
 70
     0
 72
     0
 73
     0
 74
     0
  7

 75
     0
147
1.0
 76
     0
 77
     2
 78
   300
148
0.0
149
0.0
100
AcDbLayout
  1
Layout1
 70
     1
 71
     1
 10
0.0
 20
0.0
 11
12.0
 21
9.0
 12
0.0
 22
0.0
 32
0.0
 14
1.000000000000000E+20
 24
1.000000000000000E+20
 34
1.000000000000000E+20
 15
-1.000000000000000E+20
 25
-1.000000000000000E+20
 35
-1.000000000000000E+20
146
0.0
 13
0.0
 23
0.0
 33
0.0
 16
1.0
 26
0.0
 36
0.0
 17
0.0
 27
1.0
 37
0.0
 76
     0
330
200
  0
LAYOUT
  5
8EE
102
{ACAD_REACTORS
330
1A
102
}
330
1A
100
AcDbPlotSettings
  1

  2
none_device
  4

  6

 40
0.0
 41
0.0
 42
0.0
 43
0.0
 44
279358.6877929688
 45
244266.8080566406
 46
0.0
 47
0.0
 48
0.0
 49
0.0
140
0.0
141
0.0
142
1.0
143
1.0
 70
  1024
 72
     0
 73
     0
 74
     0
  7

 75
     0
147
1.0
 76
     0
 77
     2
 78
   300
148
0.0
149
0.0
100
AcDbLayout
  1
Model
 70
     0
 71
     0
 10
0.0
 20
0.0
 11
10998.3735351562
 21
9616.803466796898
 12
0.0
 22
0.0
 32
0.0
 14
0.0
 24
0.0
 34
0.0
 15
0.0
 25
0.0
 35
0.0
146
0.0
 13
0.0
 23
0.0
 33
0.0
 16
1.0
 26
0.0
 36
0.0
 17
0.0
 27
1.0
 37
0.0
 76
     0
330
1FF
331
1F4
  0
MATERIAL
  5
8FB
102
{ACAD_XDICTIONARY
360
8FC
102
}
102
{ACAD_REACTORS
330
8F2
102
}
330
8F2
100
AcDbMaterial
  1
ByBlock
 72
     0
 43
0.0208333333333333
 43
0.0
 43
0.0
 43
0.0
 43
0.0
 43
0.0208333333333333
 43
0.0
 43
0.0
 43
0.0
 43
0.0
 43
1.0
 43
0.0
 43
0.0
 43
0.0
 43
0.0
 43
1.0
 77
     0
 47
0.0208333333333333
 47
0.0
 47
0.0
 47
0.0
 47
0.0
 47
0.0208333333333333
 47
0.0
 47
0.0
 47
0.0
 47
0.0
 47
1.0
 47
0.0
 47
0.0
 47
0.0
 47
0.0
 47
1.0
171
     0
 49
0.0208333333333333
 49
0.0
 49
0.0
 49
0.0
 49
0.0
 49
0.0208333333333333
 49
0.0
 49
0.0
 49
0.0
 49
0.0
 49
1.0
 49
0.0
 49
0.0
 49
0.0
 49
0.0
 49
1.0
175
     0
142
0.0208333333333333
142
0.0
142
0.0
142
0.0
142
0.0
142
0.0208333333333333
142
0.0
142
0.0
142
0.0
142
0.0
142
1.0
142
0.0
142
0.0
142
0.0
142
0.0
142
1.0
179
     0
144
0.0208333333333333
144
0.0
144
0.0
144
0.0
144
0.0
144
0.0208333333333333
144
0.0
144
0.0
144
0.0
144
0.0
144
1.0
144
0.0
144
0.0
144
0.0
144
0.0
144
1.0
147
0.0208333333333333
147
0.0
147
0.0
147
0.0
147
0.0
147
0.0208333333333333
147
0.0
147
0.0
147
0.0
147
0.0
147
1.0
147
0.0
147
0.0
147
0.0
147
0.0
147
1.0
  0
MATERIAL
  5
8F3
102
{ACAD_XDICTIONARY
360
8F4
102
}
102
{ACAD_REACTORS
330
8F2
102
}
330
8F2
100
AcDbMaterial
  1
ByLayer
 72
     0
 43
0.0208333333333333
 43
0.0
 43
0.0
 43
0.0
 43
0.0
 43
0.0208333333333333
 43
0.0
 43
0.0
 43
0.0
 43
0.0
 43
1.0
 43
0.0
 43
0.0
 43
0.0
 43
0.0
 43
1.0
 77
     0
 47
0.0208333333333333
 47
0.0
 47
0.0
 47
0.0
 47
0.0
 47
0.0208333333333333
 47
0.0
 47
0.0
 47
0.0
 47
0.0
 47
1.0
 47
0.0
 47
0.0
 47
0.0
 47
0.0
 47
1.0
171
     0
 49
0.0208333333333333
 49
0.0
 49
0.0
 49
0.0
 49
0.0
 49
0.0208333333333333
 49
0.0
 49
0.0
 49
0.0
 49
0.0
 49
1.0
 49
0.0
 49
0.0
 49
0.0
 49
0.0
 49
1.0
175
     0
142
0.0208333333333333
142
0.0
142
0.0
142
0.0
142
0.0
142
0.0208333333333333
142
0.0
142
0.0
142
0.0
142
0.0
142
1.0
142
0.0
142
0.0
142
0.0
142
0.0
142
1.0
179
     0
144
0.0208333333333333
144
0.0
144
0.0
144
0.0
144
0.0
144
0.0208333333333333
144
0.0
144
0.0
144
0.0
144
0.0
144
1.0
144
0.0
144
0.0
144
0.0
144
0.0
144
1.0
147
0.0208333333333333
147
0.0
147
0.0
147
0.0
147
0.0
147
0.0208333333333333
147
0.0
147
0.0
147
0.0
147
0.0
147
1.0
147
0.0
147
0.0
147
0.0
147
0.0
147
1.0
  0
MATERIAL
  5
903
102
{ACAD_XDICTIONARY
360
904
102
}
102
{ACAD_REACTORS
330
8F2
102
}
330
8F2
100
AcDbMaterial
  1
Global
 72
     0
 43
0.0208333333333333
 43
0.0
 43
0.0
 43
0.0
 43
0.0
 43
0.0208333333333333
 43
0.0
 43
0.0
 43
0.0
 43
0.0
 43
1.0
 43
0.0
 43
0.0
 43
0.0
 43
0.0
 43
1.0
 77
     0
 47
0.0208333333333333
 47
0.0
 47
0.0
 47
0.0
 47
0.0
 47
0.0208333333333333
 47
0.0
 47
0.0
 47
0.0
 47
0.0
 47
1.0
 47
0.0
 47
0.0
 47
0.0
 47
0.0
 47
1.0
171
     0
 49
0.0208333333333333
 49
0.0
 49
0.0
 49
0.0
 49
0.0
 49
0.0208333333333333
 49
0.0
 49
0.0
 49
0.0
 49
0.0
 49
1.0
 49
0.0
 49
0.0
 49
0.0
 49
0.0
 49
1.0
175
     0
142
0.0208333333333333
142
0.0
142
0.0
142
0.0
142
0.0
142
0.0208333333333333
142
0.0
142
0.0
142
0.0
142
0.0
142
1.0
142
0.0
142
0.0
142
0.0
142
0.0
142
1.0
179
     0
144
0.0208333333333333
144
0.0
144
0.0
144
0.0
144
0.0
144
0.0208333333333333
144
0.0
144
0.0
144
0.0
144
0.0
144
1.0
144
0.0
144
0.0
144
0.0
144
0.0
144
1.0
147
0.0208333333333333
147
0.0
147
0.0
147
0.0
147
0.0
147
0.0208333333333333
147
0.0
147
0.0
147
0.0
147
0.0
147
1.0
147
0.0
147
0.0
147
0.0
147
0.0
147
1.0
  0
MLEADERSTYLE
  5
942
102
{ACAD_REACTORS
330
941
102
}
330
941
100
AcDbMLeaderStyle
170
     2
171
     1
172
     0
 90
        2
 40
0.0
 41
0.0
173
     1
 91
-1056964608
340
14
 92
       -2
290
     1
 42
0.09
291
     1
 43
0.36
  3
Standard
 44
0.18
300

342
11
174
     1
178
     6
175
     1
176
     0
 93
-1056964608
 45
0.18
292
     0
297
     0
 46
0.18
 94
-1056964608
 47
1.0
 49
1.0
140
1.0
293
     1
141
0.0
294
     1
177
     0
142
1.0
295
     0
296
     0
143
0.125
1001
ACAD_MLEADERVER
1070
     2
  0
MLINESTYLE
  5
18
102
{ACAD_REACTORS
330
17
102
}
330
17
100
AcDbMlineStyle
  2
STANDARD
 70
     0
  3

 62
   256
 51
90.0
 52
90.0
 71
     2
 49
0.5
 62
   256
  6
BYLAYER
 49
-0.5
 62
   256
  6
BYLAYER
  0
ACDBPLACEHOLDER
  5
F
102
{ACAD_REACTORS
330
E
102
}
330
E
  0
SCALE
  5
920
102
{ACAD_REACTORS
330
91F
102
}
330
91F
100
AcDbScale
 70
     0
300
1:1
140
1.0
141
1.0
290
     1
  0
SCALE
  5
921
102
{ACAD_REACTORS
330
91F
102
}
330
91F
100
AcDbScale
 70
     0
300
1:2
140
1.0
141
2.0
290
     0
  0
SCALE
  5
922
102
{ACAD_REACTORS
330
91F
102
}
330
91F
100
AcDbScale
 70
     0
300
1:4
140
1.0
141
4.0
290
     0
  0
SCALE
  5
923
102
{ACAD_REACTORS
330
91F
102
}
330
91F
100
AcDbScale
 70
     0
300
1:5
140
1.0
141
5.0
290
     0
  0
SCALE
  5
924
102
{ACAD_REACTORS
330
91F
102
}
330
91F
100
AcDbScale
 70
     0
300
1:8
140
1.0
141
8.0
290
     0
  0
SCALE
  5
925
102
{ACAD_REACTORS
330
91F
102
}
330
91F
100
AcDbScale
 70
     0
300
1:10
140
1.0
141
10.0
290
     0
  0
SCALE
  5
926
102
{ACAD_REACTORS
330
91F
102
}
330
91F
100
AcDbScale
 70
     0
300
1:16
140
1.0
141
16.0
290
     0
  0
SCALE
  5
927
102
{ACAD_REACTORS
330
91F
102
}
330
91F
100
AcDbScale
 70
     0
300
1:20
140
1.0
141
20.0
290
     0
  0
SCALE
  5
928
102
{ACAD_REACTORS
330
91F
102
}
330
91F
100
AcDbScale
 70
     0
300
1:30
140
1.0
141
30.0
290
     0
  0
SCALE
  5
929
102
{ACAD_REACTORS
330
91F
102
}
330
91F
100
AcDbScale
 70
     0
300
1:40
140
1.0
141
40.0
290
     0
  0
SCALE
  5
92A
102
{ACAD_REACTORS
330
91F
102
}
330
91F
100
AcDbScale
 70
     0
300
1:50
140
1.0
141
50.0
290
     0
  0
SCALE
  5
92B
102
{ACAD_REACTORS
330
91F
102
}
330
91F
100
AcDbScale
 70
     0
300
1:100
140
1.0
141
100.0
290
     0
  0
SCALE
  5
92C
102
{ACAD_REACTORS
330
91F
102
}
330
91F
100
AcDbScale
 70
     0
300
2:1
140
2.0
141
1.0
290
     0
  0
SCALE
  5
92D
102
{ACAD_REACTORS
330
91F
102
}
330
91F
100
AcDbScale
 70
     0
300
4:1
140
4.0
141
1.0
290
     0
  0
SCALE
  5
92E
102
{ACAD_REACTORS
330
91F
102
}
330
91F
100
AcDbScale
 70
     0
300
8:1
140
8.0
141
1.0
290
     0
  0
SCALE
  5
92F
102
{ACAD_REACTORS
330
91F
102
}
330
91F
100
AcDbScale
 70
     0
300
10:1
140
10.0
141
1.0
290
     0
  0
SCALE
  5
930
102
{ACAD_REACTORS
330
91F
102
}
330
91F
100
AcDbScale
 70
     0
300
100:1
140
100.0
141
1.0
290
     0
  0
SCALE
  5
931
102
{ACAD_REACTORS
330
91F
102
}
330
91F
100
AcDbScale
 70
     0
300
1/128" = 1'-0"
140
0.0078125
141
12.0
290
     0
  0
SCALE
  5
932
102
{ACAD_REACTORS
330
91F
102
}
330
91F
100
AcDbScale
 70
     0
300
1/64" = 1'-0"
140
0.015625
141
12.0
290
     0
  0
SCALE
  5
933
102
{ACAD_REACTORS
330
91F
102
}
330
91F
100
AcDbScale
 70
     0
300
1/32" = 1'-0"
140
0.03125
141
12.0
290
     0
  0
SCALE
  5
934
102
{ACAD_REACTORS
330
91F
102
}
330
91F
100
AcDbScale
 70
     0
300
1/16" = 1'-0"
140
0.0625
141
12.0
290
     0
  0
SCALE
  5
935
102
{ACAD_REACTORS
330
91F
102
}
330
91F
100
AcDbScale
 70
     0
300
3/32" = 1'-0"
140
0.09375
141
12.0
290
     0
  0
SCALE
  5
936
102
{ACAD_REACTORS
330
91F
102
}
330
91F
100
AcDbScale
 70
     0
300
1/8" = 1'-0"
140
0.125
141
12.0
290
     0
  0
SCALE
  5
937
102
{ACAD_REACTORS
330
91F
102
}
330
91F
100
AcDbScale
 70
     0
300
3/16" = 1'-0"
140
0.1875
141
12.0
290
     0
  0
SCALE
  5
938
102
{ACAD_REACTORS
330
91F
102
}
330
91F
100
AcDbScale
 70
     0
300
1/4" = 1'-0"
140
0.25
141
12.0
290
     0
  0
SCALE
  5
939
102
{ACAD_REACTORS
330
91F
102
}
330
91F
100
AcDbScale
 70
     0
300
3/8" = 1'-0"
140
0.375
141
12.0
290
     0
  0
SCALE
  5
93A
102
{ACAD_REACTORS
330
91F
102
}
330
91F
100
AcDbScale
 70
     0
300
1/2" = 1'-0"
140
0.5
141
12.0
290
     0
  0
SCALE
  5
93B
102
{ACAD_REACTORS
330
91F
102
}
330
91F
100
AcDbScale
 70
     0
300
3/4" = 1'-0"
140
0.75
141
12.0
290
     0
  0
SCALE
  5
93C
102
{ACAD_REACTORS
330
91F
102
}
330
91F
100
AcDbScale
 70
     0
300
1" = 1'-0"
140
1.0
141
12.0
290
     0
  0
SCALE
  5
93D
102
{ACAD_REACTORS
330
91F
102
}
330
91F
100
AcDbScale
 70
     0
300
1-1/2" = 1'-0"
140
1.5
141
12.0
290
     0
  0
SCALE
  5
93E
102
{ACAD_REACTORS
330
91F
102
}
330
91F
100
AcDbScale
 70
     0
300
3" = 1'-0"
140
3.0
141
12.0
290
     0
  0
SCALE
  5
93F
102
{ACAD_REACTORS
330
91F
102
}
330
91F
100
AcDbScale
 70
     0
300
6" = 1'-0"
140
6.0
141
12.0
290
     0
  0
SCALE
  5
940
102
{ACAD_REACTORS
330
91F
102
}
330
91F
100
AcDbScale
 70
     0
300
1'-0" = 1'-0"
140
12.0
141
12.0
290
     0
  0
TABLESTYLE
  5
91E
102
{ACAD_XDICTIONARY
360
944
102
}
102
{ACAD_REACTORS
330
91D
102
}
330
91D
100
AcDbTableStyle
  3
Standard
 70
     0
 71
     0
 40
0.06
 41
0.06
280
     0
281
     0
  7
STANDARD
140
0.18
170
     2
 62
     0
 63
     7
283
     0
 90
      512
 91
        0
  1

274
    -2
284
     1
 64
     0
275
    -2
285
     1
 65
     0
276
    -2
286
     1
 66
     0
277
    -2
287
     1
 67
     0
278
    -2
288
     1
 68
     0
279
    -2
289
     1
 69
     0
  7
STANDARD
140
0.25
170
     5
 62
     0
 63
     7
283
     0
 90
      512
 91
        0
  1

274
    -2
284
     1
 64
     0
275
    -2
285
     1
 65
     0
276
    -2
286
     1
 66
     0
277
    -2
287
     1
 67
     0
278
    -2
288
     1
 68
     0
279
    -2
289
     1
 69
     0
  7
STANDARD
140
0.18
170
     5
 62
     0
 63
     7
283
     0
 90
      512
 91
        0
  1

274
    -2
284
     1
 64
     0
275
    -2
285
     1
 65
     0
276
    -2
286
     1
 66
     0
277
    -2
287
     1
 67
     0
278
    -2
288
     1
 68
     0
279
    -2
289
     1
 69
     0
  0
VISUALSTYLE
  5
911
102
{ACAD_REACTORS
330
90B
102
}
330
90B
100
AcDbVisualStyle
  2
2dWireframe
 70
     4
 71
     0
 72
     2
 73
     0
 90
        0
 40
-0.6
 41
-30.0
 62
     5
 63
     7
421
 16777215
 74
     1
 91
        4
 64
     7
 65
   257
 75
     1
175
     1
 42
1.0
 92
        0
 66
   257
 43
1.0
 76
     1
 77
     6
 78
     2
 67
     7
 79
     5
170
     0
171
     0
290
     0
174
     0
 93
        1
 44
0.0
173
     0
291
     0
 45
0.0
  0
VISUALSTYLE
  5
913
102
{ACAD_REACTORS
330
90B
102
}
330
90B
100
AcDbVisualStyle
  2
3D Hidden
 70
     6
 71
     1
 72
     2
 73
     2
 90
        0
 40
-0.6
 41
-30.0
 62
     5
 63
     7
421
 16777215
 74
     2
 91
        2
 64
     7
 65
   257
 75
     2
175
     1
 42
40.0
 92
        0
 66
   257
 43
1.0
 76
     1
 77
     6
 78
     2
 67
     7
 79
     3
170
     0
171
     0
290
     0
174
     0
 93
        1
 44
0.0
173
     0
291
     0
 45
0.0
  0
VISUALSTYLE
  5
912
102
{ACAD_REACTORS
330
90B
102
}
330
90B
100
AcDbVisualStyle
  2
3dWireframe
 70
     5
 71
     0
 72
     2
 73
     0
 90
        0
 40
-0.6
 41
-30.0
 62
     5
 63
     7
421
 16777215
 74
     1
 91
        4
 64
     7
 65
   257
 75
     1
175
     1
 42
1.0
 92
        0
 66
   257
 43
1.0
 76
     1
 77
     6
 78
     2
 67
     7
 79
     5
170
     0
171
     0
290
     0
174
     0
 93
        1
 44
0.0
173
     0
291
     0
 45
0.0
  0
VISUALSTYLE
  5
910
102
{ACAD_REACTORS
330
90B
102
}
330
90B
100
AcDbVisualStyle
  2
Basic
 70
     7
 71
     1
 72
     0
 73
     1
 90
        0
 40
-0.6
 41
-30.0
 62
     5
 63
     7
421
 16777215
 74
     0
 91
        4
 64
     7
 65
   257
 75
     1
175
     1
 42
1.0
 92
        8
 66
     7
 43
1.0
 76
     1
 77
     6
 78
     2
 67
     7
 79
     5
170
     0
171
     0
290
     0
174
     0
 93
        1
 44
0.0
173
     0
291
     1
 45
0.0
  0
VISUALSTYLE
  5
917
102
{ACAD_REACTORS
330
90B
102
}
330
90B
100
AcDbVisualStyle
  2
Brighten
 70
    12
 71
     2
 72
     2
 73
     0
 90
        0
 40
-0.6
 41
-30.0
 62
     5
 63
     7
421
 16777215
 74
     1
 91
        4
 64
     7
 65
   257
 75
     1
175
     1
 42
1.0
 92
        8
 66
     7
 43
1.0
 76
     1
 77
     6
 78
     2
 67
     7
 79
     5
170
     0
171
     0
290
     0
174
     0
 93
        1
 44
50.0
173
     0
291
     1
 45
0.0
  0
VISUALSTYLE
  5
91B
102
{ACAD_REACTORS
330
90B
102
}
330
90B
100
AcDbVisualStyle
  2
ColorChange
 70
    16
 71
     2
 72
     2
 73
     3
 90
        0
 40
-0.6
 41
-30.0
 62
     5
 63
     8
421
  8421504
 74
     1
 91
        4
 64
     7
 65
   257
 75
     1
175
     1
 42
1.0
 92
        8
 66
     8
424
  8421504
 43
1.0
 76
     1
 77
     6
 78
     2
 67
     7
 79
     5
170
     0
171
     0
290
     0
174
     0
 93
        1
 44
0.0
173
     0
291
     1
 45
0.0
  0
VISUALSTYLE
  5
914
102
{ACAD_REACTORS
330
90B
102
}
330
90B
100
AcDbVisualStyle
  2
Conceptual
 70
     9
 71
     3
 72
     2
 73
     0
 90
        0
 40
-0.6
 41
-30.0
 62
     5
 63
     7
421
 16777215
 74
     2
 91
        2
 64
     7
 65
   257
 75
     1
175
     1
 42
40.0
 92
        8
 66
     7
 43
1.0
 76
     1
 77
     6
 78
     2
 67
     7
 79
     3
170
     0
171
     0
290
     0
174
     0
 93
        1
 44
0.0
173
     0
291
     0
 45
0.0
  0
VISUALSTYLE
  5
916
102
{ACAD_REACTORS
330
90B
102
}
330
90B
100
AcDbVisualStyle
  2
Dim
 70
    11
 71
     2
 72
     2
 73
     0
 90
        0
 40
-0.6
 41
-30.0
 62
     5
 63
     7
421
 16777215
 74
     1
 91
        4
 64
     7
 65
   257
 75
     1
175
     1
 42
1.0
 92
        8
 66
     7
 43
1.0
 76
     1
 77
     6
 78
     2
 67
     7
 79
     5
170
     0
171
     0
290
     0
174
     0
 93
        1
 44
-50.0
173
     0
291
     1
 45
0.0
  0
VISUALSTYLE
  5
91A
102
{ACAD_REACTORS
330
90B
102
}
330
90B
100
AcDbVisualStyle
  2
Facepattern
 70
    15
 71
     2
 72
     2
 73
     0
 90
        0
 40
-0.6
 41
-30.0
 62
     5
 63
     7
421
 16777215
 74
     1
 91
        4
 64
     7
 65
   257
 75
     1
175
     1
 42
1.0
 92
        8
 66
     7
 43
1.0
 76
     1
 77
     6
 78
     2
 67
     7
 79
     5
170
     0
171
     0
290
     0
174
     0
 93
        1
 44
0.0
173
     0
291
     1
 45
0.0
  0
VISUALSTYLE
  5
90C
102
{ACAD_REACTORS
330
90B
102
}
330
90B
100
AcDbVisualStyle
  2
Flat
 70
     0
 71
     2
 72
     1
 73
     1
 90
        2
 40
-0.6
 41
30.0
 62
     5
 63
     7
421
 16777215
 74
     0
 91
        4
 64
     7
 65
   257
 75
     1
175
     1
 42
1.0
 92
        8
 66
     7
 43
1.0
 76
     1
 77
     6
 78
     2
 67
     7
 79
     5
170
     0
171
     0
290
     0
174
     0
 93
       13
 44
0.0
173
     0
291
     1
 45
0.0
  0
VISUALSTYLE
  5
90D
102
{ACAD_REACTORS
330
90B
102
}
330
90B
100
AcDbVisualStyle
  2
FlatWithEdges
 70
     1
 71
     2
 72
     1
 73
     1
 90
        2
 40
-0.6
 41
30.0
 62
     5
 63
     7
421
 16777215
 74
     1
 91
        4
 64
     7
 65
   257
 75
     1
175
     1
 42
1.0
 92
        0
 66
   257
 43
1.0
 76
     1
 77
     6
 78
     2
 67
     7
 79
     5
170
     0
171
     0
290
     0
174
     0
 93
       13
 44
0.0
173
     0
291
     1
 45
0.0
  0
VISUALSTYLE
  5
90E
102
{ACAD_REACTORS
330
90B
102
}
330
90B
100
AcDbVisualStyle
  2
Gouraud
 70
     2
 71
     2
 72
     2
 73
     1
 90
        2
 40
-0.6
 41
30.0
 62
     5
 63
     7
421
 16777215
 74
     0
 91
        4
 64
     7
 65
   257
 75
     1
175
     1
 42
1.0
 92
        0
 66
     7
 43
1.0
 76
     1
 77
     6
 78
     2
 67
     7
 79
     5
170
     0
171
     0
290
     0
174
     0
 93
       13
 44
0.0
173
     0
291
     1
 45
0.0
  0
VISUALSTYLE
  5
90F
102
{ACAD_REACTORS
330
90B
102
}
330
90B
100
AcDbVisualStyle
  2
GouraudWithEdges
 70
     3
 71
     2
 72
     2
 73
     1
 90
        2
 40
-0.6
 41
30.0
 62
     5
 63
     7
421
 16777215
 74
     1
 91
        4
 64
     7
 65
   257
 75
     1
175
     1
 42
1.0
 92
        0
 66
   257
 43
1.0
 76
     1
 77
     6
 78
     2
 67
     7
 79
     5
170
     0
171
     0
290
     0
174
     0
 93
       13
 44
0.0
173
     0
291
     1
 45
0.0
  0
VISUALSTYLE
  5
919
102
{ACAD_REACTORS
330
90B
102
}
330
90B
100
AcDbVisualStyle
  2
Linepattern
 70
    14
 71
     2
 72
     2
 73
     0
 90
        0
 40
-0.6
 41
-30.0
 62
     5
 63
     7
421
 16777215
 74
     1
 91
        4
 64
     7
 65
   257
 75
     7
175
     7
 42
1.0
 92
        8
 66
     7
 43
1.0
 76
     1
 77
     6
 78
     2
 67
     7
 79
     5
170
     0
171
     0
290
     0
174
     0
 93
        1
 44
0.0
173
     0
291
     1
 45
0.0
  0
VISUALSTYLE
  5
915
102
{ACAD_REACTORS
330
90B
102
}
330
90B
100
AcDbVisualStyle
  2
Realistic
 70
     8
 71
     2
 72
     2
 73
     0
 90
        0
 40
-0.6
 41
-30.0
 62
     5
 63
     7
421
 16777215
 74
     1
 91
        0
 64
     7
 65
   257
 75
     1
175
     1
 42
1.0
 92
        8
 66
     8
424
  7895160
 43
1.0
 76
     1
 77
     6
 78
     2
 67
     7
 79
     5
170
     0
171
     0
290
     0
174
     0
 93
       13
 44
0.0
173
     0
291
     0
 45
0.0
  0
VISUALSTYLE
  5
918
102
{ACAD_REACTORS
330
90B
102
}
330
90B
100
AcDbVisualStyle
  2
Thicken
 70
    13
 71
     2
 72
     2
 73
     0
 90
        0
 40
-0.6
 41
-30.0
 62
     5
 63
     7
421
 16777215
 74
     1
 91
        4
 64
     7
 65
   257
 75
     1
175
     1
 42
1.0
 92
       12
 66
     7
 43
1.0
 76
     1
 77
     6
 78
     2
 67
     7
 79
     5
170
     0
171
     0
290
     0
174
     0
 93
        1
 44
0.0
173
     0
291
     1
 45
0.0
  0
DICTIONARYVAR
  5
94A
102
{ACAD_REACTORS
330
947
102
}
330
947
100
DictionaryVariables
280
     0
  1
1:1
  0
DICTIONARYVAR
  5
949
102
{ACAD_REACTORS
330
947
102
}
330
947
100
DictionaryVariables
280
     0
  1
STANDARD
  0
DICTIONARYVAR
  5
948
102
{ACAD_REACTORS
330
947
102
}
330
947
100
DictionaryVariables
280
     0
  1
STANDARD
  0
DICTIONARY
  5
8FC
330
8FB
100
AcDbDictionary
280
     1
281
     1
  3
BUMPTILE
360
8FE
  3
DIFFUSETILE
360
8FD
  3
OPACITYTILE
360
901
  3
REFLECTIONTILE
360
900
  3
REFRACTIONTILE
360
902
  3
SPECULARTILE
360
8FF
  0
DICTIONARY
  5
8F4
330
8F3
100
AcDbDictionary
280
     1
281
     1
  3
BUMPTILE
360
8F6
  3
DIFFUSETILE
360
8F5
  3
OPACITYTILE
360
8F9
  3
REFLECTIONTILE
360
8F8
  3
REFRACTIONTILE
360
8FA
  3
SPECULARTILE
360
8F7
  0
DICTIONARY
  5
904
330
903
100
AcDbDictionary
280
     1
281
     1
  3
BUMPTILE
360
906
  3
DIFFUSETILE
360
905
  3
OPACITYTILE
360
909
  3
REFLECTIONTILE
360
908
  3
REFRACTIONTILE
360
90A
  3
SPECULARTILE
360
907
  0
DICTIONARY
  5
944
330
91E
100
AcDbDictionary
280
     1
281
     1
  3
ACAD_ROUNDTRIP_2008_TABLESTYLE_CELLSTYLEMAP
360
95F
  0
XRECORD
  5
8FE
102
{ACAD_REACTORS
330
8FC
102
}
330
8FC
100
AcDbXrecord
280
     1
270
     1
271
     1
  0
XRECORD
  5
8FD
102
{ACAD_REACTORS
330
8FC
102
}
330
8FC
100
AcDbXrecord
280
     1
270
     1
271
     1
  0
XRECORD
  5
901
102
{ACAD_REACTORS
330
8FC
102
}
330
8FC
100
AcDbXrecord
280
     1
270
     1
271
     1
  0
XRECORD
  5
900
102
{ACAD_REACTORS
330
8FC
102
}
330
8FC
100
AcDbXrecord
280
     1
270
     1
271
     1
  0
XRECORD
  5
902
102
{ACAD_REACTORS
330
8FC
102
}
330
8FC
100
AcDbXrecord
280
     1
270
     1
271
     1
  0
XRECORD
  5
8FF
102
{ACAD_REACTORS
330
8FC
102
}
330
8FC
100
AcDbXrecord
280
     1
270
     1
271
     1
  0
XRECORD
  5
8F6
102
{ACAD_REACTORS
330
8F4
102
}
330
8F4
100
AcDbXrecord
280
     1
270
     1
271
     1
  0
XRECORD
  5
8F5
102
{ACAD_REACTORS
330
8F4
102
}
330
8F4
100
AcDbXrecord
280
     1
270
     1
271
     1
  0
XRECORD
  5
8F9
102
{ACAD_REACTORS
330
8F4
102
}
330
8F4
100
AcDbXrecord
280
     1
270
     1
271
     1
  0
XRECORD
  5
8F8
102
{ACAD_REACTORS
330
8F4
102
}
330
8F4
100
AcDbXrecord
280
     1
270
     1
271
     1
  0
XRECORD
  5
8FA
102
{ACAD_REACTORS
330
8F4
102
}
330
8F4
100
AcDbXrecord
280
     1
270
     1
271
     1
  0
XRECORD
  5
8F7
102
{ACAD_REACTORS
330
8F4
102
}
330
8F4
100
AcDbXrecord
280
     1
270
     1
271
     1
  0
XRECORD
  5
906
102
{ACAD_REACTORS
330
904
102
}
330
904
100
AcDbXrecord
280
     1
270
     1
271
     1
  0
XRECORD
  5
905
102
{ACAD_REACTORS
330
904
102
}
330
904
100
AcDbXrecord
280
     1
270
     1
271
     1
  0
XRECORD
  5
909
102
{ACAD_REACTORS
330
904
102
}
330
904
100
AcDbXrecord
280
     1
270
     1
271
     1
  0
XRECORD
  5
908
102
{ACAD_REACTORS
330
904
102
}
330
904
100
AcDbXrecord
280
     1
270
     1
271
     1
  0
XRECORD
  5
90A
102
{ACAD_REACTORS
330
904
102
}
330
904
100
AcDbXrecord
280
     1
270
     1
271
     1
  0
XRECORD
  5
907
102
{ACAD_REACTORS
330
904
102
}
330
904
100
AcDbXrecord
280
     1
270
     1
271
     1
  0
CELLSTYLEMAP
  5
95F
102
{ACAD_REACTORS
330
944
102
}
330
944
100
AcDbCellStyleMap
 90
        3
300
CELLSTYLE
  1
TABLEFORMAT_BEGIN
 90
        5
170
     1
 91
        0
 92
    32768
 62
   257
 93
        1
300
CONTENTFORMAT
  1
CONTENTFORMAT_BEGIN
 90
        0
 91
        0
 92
      512
 93
        0
300

 40
0.0
140
1.0
 94
        5
 62
     0
340
11
144
0.25
309
CONTENTFORMAT_END
171
     0
 94
        0
309
TABLEFORMAT_END
  1
CELLSTYLE_BEGIN
 90
        1
 91
        1
300
_TITLE
309
CELLSTYLE_END
300
CELLSTYLE
  1
TABLEFORMAT_BEGIN
 90
        5
170
     1
 91
        0
 92
        0
 62
   257
 93
        1
300
CONTENTFORMAT
  1
CONTENTFORMAT_BEGIN
 90
        0
 91
        0
 92
      512
 93
        0
300

 40
0.0
140
1.0
 94
        5
 62
     0
340
11
144
0.18
309
CONTENTFORMAT_END
171
     0
 94
        0
309
TABLEFORMAT_END
  1
CELLSTYLE_BEGIN
 90
        2
 91
        1
300
_HEADER
309
CELLSTYLE_END
300
CELLSTYLE
  1
TABLEFORMAT_BEGIN
 90
        5
170
     1
 91
        0
 92
        0
 62
   257
 93
        1
300
CONTENTFORMAT
  1
CONTENTFORMAT_BEGIN
 90
        0
 91
        0
 92
      512
 93
        0
300

 40
0.0
140
1.0
 94
        2
 62
     0
340
11
144
0.18
309
CONTENTFORMAT_END
171
     0
 94
        0
309
TABLEFORMAT_END
  1
CELLSTYLE_BEGIN
 90
        3
 91
        2
300
_DATA
309
CELLSTYLE_END
  0
ENDSEC
  0
EOF
